Oops, an error
Loading. Please wait.

Things Are Different Now Than Theyve Ever Been tab

152 views 1 this week
1 commentread comment
1 2 3 4 5
2 more votes to show rating
add to favorites
×
Save as Personal and add changes to this tab that will be seen only by you. Learn more ›
×
You can save this tab as Personal to edit and correct it or add notes. All changes will be seen only by you. Learn more »
launch autoscroll
font size
0
reset
how to read this tab
guitar tuner
edit
Autoscroll
slow
fast
+/-
esc
set tempo
stop
Author
Difficulty
-----------------------------------------------------------------------------
          Things Are Different Now Than They've Ever Been - PlayRadioPlay!
-----------------------------------------------------------------------------
Tabbed by: chyeahitswendy
Email: oxthekillersox@gmail.com

Tuning: Standard

Main Riff:

e|---------------------------------------------------------------------------|
B|--12---------------5-------------------------------------------------------|
G|------11---11-----------4------4----4-----4------4------4-------4------4---|
D|---------------------------------------------------------------------------|
A|--14-----14--------7-------7------7-----7-----7------7------7------7-------|
E|---------------------------------------------------------------------------|

Hopefully that sounds okay. Tabbed it from ear so it might not be 100% correct.

************************************

| /   slide up
| \   slide down
| h   hammer-on
| p   pull-off
| ~   vibrato
| +   harmonic
| x   Mute note
| b   Bend
| pb  Pre-bend
| br  Bend release
| pbr Pre-bend release
| brb Bend release bend

************************************

            
            
Suggest correction
Creating personal tab
Creating personal tab
You can edit any tab online and save it as your Personal.

You can edit, replace or remove any tab part or add personal notes – all changes will be seen only by you.

Personal tabs can be accessed anytime from any device, even offline.
Learn more »
Give kudos to tab author, rate the tab!
1 2 3 4 5
comments
print report bad tab
1 comment total.
0 reply
madizonia 21 Jun 18, 2010 02:43 PM

Main Riff:

e|---------------------------------------------------------------------------|
B|--12---------------5----------------5-----5------5------5-------5------5---|
G|------11---11-----------4------4----4-----4------4------4-------4------4---|
D|---------------------------------------------------------------------------|
A|--14-----14--------7-------7------7-----7-----7------7------7------7-------|
E|---------------------------------------------------------------------------|

guest
You may want to rate the tab now too:
select rating
Wanna post a correction for this tab? Suggest correction