Oops, an error
Loading. Please wait.

Glide bass

version 2
version 2

Whole song

Interactive

10,060 views 21 this week
no commentswrite comment
1 2 3 4 5
x 5
add to favorites
×
Save as Personal and add changes to this tab that will be seen only by you. Learn more ›
×
You can save this tab as Personal to edit and correct it or add notes. All changes will be seen only by you. Learn more »
launch autoscroll
font size
0
reset
guitar tuner
edit
Autoscroll
slow
fast
+/-
esc
set tempo
stop
Author
-------------------------------------------------------------------------------
			     Glide- Pleasure
-------------------------------------------------------------------------------

Tabbed By : Andrew
e-mail: andrew_crawford_6@hotmail.com

Most of the tabs I've seen haven't been too great for this song so I'm trying to improve 
them with this tab.
 This is also my first tab so it probably won't be perfect but still better than some of 
useless tabs I've seen of this song.
 Thanks too youtube's alfredobass for his high quality videos of this song (among his 
great ones).


Tuning: Standard

G|----5------5------4-----------------------------------------------------------|
D|--------5-------------3------------5-----7-----------5------------------------|
A|--3-----------xx2--------------------------5h7--------------------------------|
E|------3-----3------x1----5h7-0--33--3-3--------0--33--3-3---------------------|

G|----7--6--5-----5------4------------------------------------------------------|
D|-------------5-------------3--------------5-------7-----------5---------------|
A|--5--4--3----------xx2------------------------------5h7-----------------------|
E|-----------3-----3------x1-----x5h7-0--33--3-3----------0--33---3-3-----------|

G|----------------5-----5------4------------------------------------------------|
D|-------------------5--------------3-----------5----7----------5---------------|
A|-------xx3h5xx3----------xx2-------------------------5h7----------------------|
E|--xx3h5----------3-----3-------x1---x5h7-0-33--3-3------0--33---3-3-----------|

G|------7--6--5-----5------4----------------------------------------------------|
D|---------------5--------------------------------------------------------------|
A|--4/5--4--3----------xx2------------------------------------------------------|
E|-------------3-----3-------x1-------------------------------------------------|

Chorus

G|--13-11-8/9-8-11-----7bend--------------12/13-----------------4h6p4h6p4h6-|
D|----------------------------------------11/12--------2p0-4h6--------------|
A|-----------------------------4-4h5-------------0-0h2----------------------|
E|--12-10-7/8-8-10------------0-0---0---------------------------------------|

Those hammer-ons are kind of difficult to tab but what I do is keep
hammering and pulling off while still slapping the G-string with my thumb
 with a steady beat

The chorus continues to repeat then back to the verse with some variations
 to it that you can probably figure out based on what’s here.

Anyways let me know what you think and I hope this helped you.


| /  slide up
| \  slide down
| h  hammer-on
| p  pull-off
| ~  vibrato
| +  harmonic
| x  Mute note
===============================================================================

            
            
Suggest correction
Creating personal tab
Creating personal tab
You can edit any tab online and save it as your Personal.

You can edit, replace or remove any tab part or add personal notes – all changes will be seen only by you.

Personal tabs can be accessed anytime from any device, even offline.
Learn more »
comments
print report bad tab
guest
You may want to rate the tab now too:
select rating
Wanna post a correction for this tab? Suggest correction