Oops, an error
Loading. Please wait.

Scott Pilgrim tab

58,227 views 66 this week
3 commentsread comments
1 2 3 4 5
x 20
add to favorites
×
Save as Personal and add changes to this tab that will be seen only by you. Learn more ›
×
You can save this tab as Personal to edit and correct it or add notes. All changes will be seen only by you. Learn more »
launch autoscroll
font size
0
reset
how to read this tab
guitar tuner
edit
Autoscroll
slow
fast
+/-
esc
set tempo
stop
-------------------------------------------------------------------------------
                             SCOTT PILGRIM - Plumtree
-------------------------------------------------------------------------------
http://www.plumtree.ca/

Tuning: Standard

Riff 1: (x4)
e|--------------------------------------------------|
B|--------------------------------------------------|
G|-9------------------------------------------------|
D|-9----------------7--7-------------------------2--|
A|-7----------------7--7-------------------------2--|
E|-0-----5h7p5------5--5------0-----2h4p2---0----0--|


Verse: (x4)
e|------------------------------|
B|------------------------------|
G|--9---9-----------------------|
D|--9---9---7-7------7-7-7---2--|
A|--7---7---7-7------7-7-7---2--|
E|--0---0---5-5------5-5-5---0--|


Riff 2:
e|---------------------------------------------------------------------------|
B|------------------------------------------------------------------------17-|
G|--16------18--18—---16h18-18--16----------------16-------18---18---16h18---|
D|------18-----------------------------16---18---------18--------------------|
A|---------------------------------------------------------------------------|
E|---------------------------------------------------------------------------|

e|---------------------------------------------------------------------------|
B|-------17------------------------------------------------------------------|
G|--16h18---16h18--16-----18---16-----16h18--16------------------------------|
D|----------------------18---------18------------16--18----------------------|
A|---------------------------------------------------------------------------|
E|---------------------------------------------------------------------------|

e|--------------------------------|
B|--------------------------------|
G|---16------18--18—18b20p16------|
D|-------18-------------------18--|
A|--------------------------------|
E|--------------------------------|

Verse (x4)

Bridge: (There’s also a second guitar picking something during this part, but I didn’t tab 
that out.)

e|----------------------------------------|
B|----------------------------------------|
G|----------4-4-4-4--9-9-9-9--------------|
D|-4-4-4-4--4-4-4-4--9-9-9-9---7-7-7-7----| (x2)
A|-4-4-4-4--2-2-2-2--7-7-7-7---7-7-7-7----|
E|-2-2-2-2-----------0-0-0-0---5-5-5-5----|

e|-----------------------------------------------------------------|
B|-----------------------------------------------------------------|
G|----------4-4-4-4--9-9-9-9------------------------------4-4-4-4--|
D|-4-4-4-4--4-4-4-4--9-9-9-9---7-7-7-7-7-7-7-7---4-4-4-4--4-4-4-4--|
A|-4-4-4-4--2-2-2-2--7-7-7-7---7-7-7-7-7-7-7-7---4-4-4-4--2-2-2-2--|
E|-2-2-2-2-----------0-0-0-0---5-5-5-5-5-5-5-5---2-2-2-2-----------|

Riff 1 (x4)

Verse (x4)

Riff 3:
e|---------------------------------------------------------------------------|
B|------------------------------------------------------------------------17-|
G|--16------18--18—---16h18-18--16----------------16-------18---18---16h18---|
D|------18-----------------------------16---18---------18--------------------|
A|---------------------------------------------------------------------------|
E|---------------------------------------------------------------------------|

e|---------------------------------------------------------------------------|
B|-------17------17------17------17------------------------------------------|
G|--16h18---16h18---16h18---16h18----16h18-16--16---16h18-16--16-------------|
D|-------------------------------------------18-------------18---------------|
A|---------------------------------------------------------------------------|
E|---------------------------------------------------------------------------|

e|----------------------------------19-----19-----19-----|
B|------------------------------------17-17--17-17--17---|
G|--16h18-16--16---16h18--16--16-------------------------|
D|----------18--------------18---------------------------|
A|-------------------------------------------------------|
E|-------------------------------------------------------|

[Bridge]

And then:
e|--------------------------------------------------------------------|
B|--------------------------------------------------------------------|
G|--9----------------------------------9----9-------9-9-------9-9-9-9-|
D|--9--9-9--11-11--9-9--7-7--7-7--9-9--9-9--9--9-9--9-9--9-9--9-9-9-9-|
A|--7--9-9--11-11--9-9--7-7--7-7--9-9--7-9--7--9-9--7-7--9-9--7-7-7-7-|
E|--0--7-7--9--9---7-7--5-5--5-5--7-7--0-7--0--7-7--0-0--7-7--0-0-0-0-|

e|------------|
b|------------|
G|------------|
D|----7---7-6-|
A|----7---7-6-|
E|----5---5-4-|
Riff 1 (4x)
THE END!



************************************

| h  Hammer-on
| p  Pull-off
| b  Bend

************************************

            
            
Suggest correction
Creating personal tab
Creating personal tab
You can edit any tab online and save it as your Personal.

You can edit, replace or remove any tab part or add personal notes – all changes will be seen only by you.

Personal tabs can be accessed anytime from any device, even offline.
Learn more »
comments
print report bad tab
3 comments total.
0 reply
mynameisscout 10 Aug 27, 2010 03:24 PM

wow! thx! this is actually really accurate.

0 reply
Linkerman 1,271 Nov 23, 2010 12:24 AM

Since most of it is correct, 4 stars.
But you do have a couple errors:

Riff 2 (00:35)
e|-------------------------------------------|
B|-------------------------------------------|
G|-16-----16h18r-16h18--16h18-18-16----------|
D|-----18---------------------------16-16h18-|
A|-------------------------------------------|
E|-------------------------------------------|

e|--------------------------------------------|
B|---------------------------17------17-------|
G|-16-----16h18r-16h18--16h18---16h18---16h18-|
D|-----18-------------------------------------|
A|--------------------------------------------|
E|--------------------------------------------|

e|------------------------------------------|
B|------------------------------------------|
G|-16-----16h18-16-----16h18-18-16----------|
D|-----18----------18--------------16-16h18-|
A|------------------------------------------|
E|------------------------------------------|

e|--------------------------------------|
B|--------------------------------------|
G|-16-----16h18-16h18-18b20-20r18p16----|
D|-----18----------------------------18-|
A|--------------------------------------|
E|--------------------------------------|

Riff 3 (01:59)
e|-------------------------------------------|
B|-------------------------------------------|
G|-16-----16h18r-16h18--16h18-18-16----------|
D|-----18---------------------------16-16h18-|
A|-------------------------------------------|
E|-------------------------------------------|

e|----------------------------------------------|
B|---------------------------17------17------17-|
G|-16-----16h18r-16h18--16h18---16h18---16h18---|
D|-----18---------------------------------------|
A|----------------------------------------------|
E|----------------------------------------------|

e|-----------------------------------------|
B|-----------------------------------------|
G|-18-16-16h18-16-----16h18-18-16----------|
D|----------------18--------------16-16h18-|
A|-----------------------------------------|
E|-----------------------------------------|

e|--------------------19---19---19----|
B|----------------------17---17----17-|
G|-16-----16h18-16h18-----------------|
D|-----18-----------------------------|
A|------------------------------------|
E|------------------------------------|

End (02:30)
e|----------------------------------------------------|
B|----------------------------------------------------|
G|-9----9-------------9--9--9-99----9-----------------|
D|-9-99-9-9-77--77-99-9-99-99-99-99-9-9-77~~--7-\-6-/-|
A|-7-99-7-9-77--77-99-7-97-97-77-99-7-9-77~~--7-\-6-/-|
E|-0-77-0-7-55--55-77-0-70-70-00-77-0-7-55~~--5-\-4-/-|

0 reply
celestefay 33 Jul 09, 2017 02:18 PM

Does anyone know the solo in the bridges?

guest
You may want to rate the tab now too:
select rating
Wanna post a correction for this tab? Suggest correction