Oops, an error
Loading. Please wait.

It's All Your Fault tab

version 2
version 2

Whole song

Interactive

by P!nk
4,052 views 1 this week
no commentswrite comment
1 2 3 4 5
3 more votes to show rating
add to favorites
×
Save as Personal and add changes to this tab that will be seen only by you. Learn more ›
×
You can save this tab as Personal to edit and correct it or add notes. All changes will be seen only by you. Learn more »
launch autoscroll
font size
0
reset
how to read this tab
guitar tuner
edit
Autoscroll
slow
fast
+/-
esc
set tempo
stop
Author
Song: It's All Your Fault
Artist: Pink
Album: Funhouse

Transcribed by stoliboy

Notes: During the Chorus play around with taking your finger of the highest string to 
it ring open on different chords (particularly on the Em7... it can slightly change the 
sound a little).

Normal Tuning

Chords:

Guitar
Cadd9        x32033
G            320033
Em7          022033

Main riff for Verse (easy for the acoustic guitar):

--------------------------------------------------------|
--------------------------------(8)--(8)--(8)--(8)--(8)-|
-9---9--9--7------------------(9)--(9)--(9)--(9)--(9)---|
-10--10-10-10-9---9--9--7---9—---(9)--(9)--(9)--(9)-----|
--------------10--10-10-10—-7---------------------------|
--------------------------------------------------------|

Alt Main riff for Verse (better for electric guitar):

--------------------------------------------------------|
-----------------------------------(10)-----(10)--------|
---------------------------------(14)----(14)----etc----|
-14--14-14-12-----------------(14)----(14)--------------|
-15--15-15-15-14--14-14-12--14--------------------------|
--------------15--15-15-15--12--------------------------|

Ringing Piano bit in the actual key:

-------15-------15-------15-------15--------|
----17-------17-------17-------17-----------|
-16-------16-------16-------16--------------|
--------------------------------------------|
--------------------------------------------|
--------------------------------------------|

VERSE #1:
Cadd9            G                Em7
I conjure up the thought of being gone

        Cadd9     G           Em7
But I'd probably even do that wrong

  Cadd9         G          Em7
I try to think about which way

           Cadd9       G          Em7
Would I be able to and would I be afraid

     Cadd9   G            Em7
Cause oh I'm bleeding out inside

Cadd9  G        Em7
Oh I don't even mind (Yeah)

CHORUS:

     Cadd9    G
It's all your fault

    Em7             Cadd9
You called me beautiful

    Cadd9     G
You turned me out

          Em7        Cadd9
And now I can't turn back

  Cadd9   G
I hold my breath

Em7              Cadd9
Because you were perfect

        Cadd9          G
But I'm running out of air

         Em7 Cadd9
And it's not fair


VERSE #2:
Da da dada da dada da
Da dadadadadada da dadadadadada
I'm trying to figure out what else to say (What else could I say)
To make you turn around and come back this way (Would you just come back this way)
I feel like we could be really awesome together
So make up your mind cause it's now or never (oh)

REPEAT CHORUS

BRIDGE (mainly done on the keyboards but you can try this for something to play):

--------------------------------------------------------|
--------------------------------------------------------|
--------------------------------------------------------|
-----------9-9-9-9-x------------------------------------|
-2-2-2-2-/-7-7-7-7-x-9-9-9-11-11-11-11------------------|
-0-0-0-0---0-0-0-0-x-7-7-7-9--9--9--9-------------------|

I would never pull the trigger
But I've cried wolf a thousand times
I wish you could
Feel as bad as I do
I have lost my mind

REPEAT CHORUS

---------------------------------------------------------|
---------------------------------------------------------|
-9-9-9-9-9-7-4-4-4-4-4-4-4-2-4-4-4-4-4-4-----------------|
-x-x-x-x-x-x-x-x-x-x-x-x-x-x-x-x-x-x-x-x-5-5-5-5-5-5-5-5-|
-7-7-7-7-7-5-2-2-2-2-2-2-2-0-2-2-2-2-2-2-x-x-x-x-x-x-x-x-|
-----------------------------------------3-3-3-3-3-3-3-3-|

---------------------------------------------------------|
---------------------------------------------------------|
-9-9-9-9-9-7-4-4-4-4-4-4-4-2-4-4-4-4-4-4-5-5-5-5-5-5-5-5-|
-x-x-x-x-x-x-x-x-x-x-x-x-x-x-x-x-x-x-x-x-x-x-x-x-x-x-x-x-|
-7-7-7-7-7-5-2-2-2-2-2-2-2-0-2-2-2-2-2-2-3-3-3-3-3-3-3-3-|
---------------------------------------------------------|

            
            
Suggest correction
Creating personal tab
Creating personal tab
You can edit any tab online and save it as your Personal.

You can edit, replace or remove any tab part or add personal notes – all changes will be seen only by you.

Personal tabs can be accessed anytime from any device, even offline.
Learn more »
Give kudos to tab author, rate the tab!
1 2 3 4 5
comments
print report bad tab
guest
You may want to rate the tab now too:
select rating
Wanna post a correction for this tab? Suggest correction