Oops, an error
Loading. Please wait.

It's All Your Fault tab

version 3
version 3

Whole song

Interactive

by P!nk
5,055 views 1 this week
1 commentread comment
1 2 3 4 5
x 4
add to favorites
×
Save as Personal and add changes to this tab that will be seen only by you. Learn more ›
×
You can save this tab as Personal to edit and correct it or add notes. All changes will be seen only by you. Learn more »
launch autoscroll
font size
0
reset
how to read this tab
guitar tuner
edit
Autoscroll
slow
fast
+/-
esc
set tempo
stop
Author
-- Pink – It's All Your Fault --

standard tuning EADGBE

tabbed by x-tasha-x

Intro/Verse:
guitar 1
E||---------------------|   
B||---------------------|   
G||-5555------9---------|X6 
D||-5555-5555-9---------|  
A||-3333-5555-7---------|   
E||------3333-----------|  

guitar 2
E||----------------------------------------------------|
B||----------------------------------8---8---8---8---8-|
G||-9---9--9--7---------------------9---9---9---9---9--|X6
D||-10--10-10-10-9---9--9--7---9—--9---9---9---9---9---|
A||--------------10--10-10-10—-7-----------------------|
E||----------------------------------------------------|


Chorus: 
guitar 1
E||---------------------|  |---------------------| 
B||---------------------|  |---------------------| 
G||-5555------9999-5555-|X3|-5555-----------5555-| 
D||-5555-5555-9999-5555-|  |-5555-5555-9999-5555-| 
A||-3333-5555-7777-3333-|  |-3333-5555-9999-3333-| 
E||------3333-----------|  |------3333-7777------| 

guitar 2
E||---------------------|  |-777------777------777--------------| 
B||---------------------|  |----88888----88888----7777788888888-| 
G||-5555------9999-5555-|X2|------------------------------------|X2
D||-5555-5555-9999-5555-|  |------------------------------------| 
A||-3333-5555-7777-3333-|  |------------------------------------| 
E||------3333-----------|  |------------------------------------| 


Verse 2(same as verse 1) 

Chorus

Bridge
guitar 1
E||-----------------------------|  |--------------------|  |--------|
B||-----------------------------|  |--------------------|  |--------|
G||-------9-9-9-9-------5-5-5-5-|X6|------9-9------5----|X2|--------|
D||-2-2---9-9-9-9-9-9-9-5-5-5-5-|  |-2-2--9-9--9---5----|  |-2-2----|
A||-2-2---7-7-7-7-9-9-9-3-3-3-3-|  |-2-2--7-7--9---3----|  |-2-2----|
E||-0-0-----------7-7-7---------|  |-0-0-------7--------|  |-0-0----|

guitar 2 (starts after 2x into guitar 1 part)
E||---------12-12-12-12-7-7--8-8-8-----------12-12-12-12-7-7--7h8-7h8-| 
B||-------------------------------------------------------------------| 
G||-9-9-9-9--------------------------9-9-9-9--------------------------|X2
D||-------------------------------------------------------------------| 
A||-------------------------------------------------------------------| 
E||-------------------------------------------------------------------|

Then:
E||-----12-12--7---8-8---------12-12--7---8-8-------| 
B||-------------------------------------------------| 
G||-9-9--------------------9-9------------------9-9-|
D||-------------------------------------------------| 
A||-------------------------------------------------| 
E||-------------------------------------------------|


Last chorus 
guitar 1
E||---------------------|  |---------------------|  |---------------------| 
B||---------------------|  |---------------------|  |---------------------| 
G||-----------9999-5555-|X1|-5555------9999-5555-|X2|-5555-----------5555-| 
D||------5555-9999-5555-|  |-5555-5555-9999-5555-|  |-5555-5555-9999-5555-| 
A||------5555-7777-3333-|  |-3333-5555-7777-3333-|  |-3333-5555-9999-3333-| 
E||------3333-----------|  |------3333-----------|  |------3333-7777------| 

guitar 2
E||--------------10-----------10-----------10-|  |---------------10-----10-| 
B||----------8-8----------8-8----------8-8----|  |-----------7-7----8-8----| 
G||-------------------------------------------|X2|-------------------------| 
D||-------------------------------------------|  |-------------------------| 
A||-------------------------------------------|  |-------------------------| 
E||-------------------------------------------|  |-------------------------| 


Then:
guitar 1
E||---------------------|  
B||---------------------|  
G||-5555------9999-5555-|X2
D||-5555-5555-9999-5555-|  
A||-3333-5555-7777-3333-|   
E||------3333-----------|  

guitar 2
E||-----------------------------------------------------------| 
B||-----------------------------------------------------------| 
G||-9-9-9-9-9-7--4-4-4-4-4-4-4-2--4-4-4-4-4-4-----------------| 
D||-------------------------------------------5-5-5-5-5-5-5-5-| 
A||-----------------------------------------------------------| 
E||-----------------------------------------------------------|

E||-----------------------------------------------------------| 
B||-----------------------------------------------------------| 
G||-9-9-9-9-9-7--4-4-4-4-4-4-4-2--4-4-4-4-4-4-5-5-5-5-5-5-5-5-| 
D||-----------------------------------------------------------| 
A||-----------------------------------------------------------| 
E||-----------------------------------------------------------|


End with:
guitar 1
E||-------------------------------------------| 
B||-------------------------------------------| 
G||-5555------9999-5555-5555-----------5555---| 
D||-5555-5555-9999-5555-5555-5555-9999-5555---| 
A||-3333-5555-7777-3333-3333-5555-9999-3333---| 
E||------3333----------------3333-7777--------| 

guitar 2
E||-----10--------10--------10-------10-----10-| 
B||-8-8-------8-8-------8-8-------7-7---8-8----| 
G||--------------------------------------------|
D||--------------------------------------------| 
A||--------------------------------------------| 
E||--------------------------------------------| 


            
            
Suggest correction
Creating personal tab
Creating personal tab
You can edit any tab online and save it as your Personal.

You can edit, replace or remove any tab part or add personal notes – all changes will be seen only by you.

Personal tabs can be accessed anytime from any device, even offline.
Learn more »
comments
print report bad tab
1 comment total.
0 reply
AngelLombard 112 Jul 19, 2014 08:48 AM

Perfect. Absolutely spot on. I was gonna post a tab until I found this. The only thing I had different was guitar 2 at the end of the last chorus, and even then it was the same thing except in the C#m pentatonic but I actually prefer your version. Well done :)

guest
You may want to rate the tab now too:
select rating
Wanna post a correction for this tab? Suggest correction