Oops, an error
Loading. Please wait.
We have an official So What tab made by UG professional guitarists. Check out the tab »
×
by P!nk
49,717 views 54 this week
7 commentsread comments
1 2 3 4 5
x 26
add to favorites
×
Save as Personal and add changes to this tab that will be seen only by you. Learn more ›
×
You can save this tab as Personal to edit and correct it or add notes. All changes will be seen only by you. Learn more »
launch autoscroll
font size
0
reset
guitar tuner
edit
Autoscroll
slow
fast
+/-
esc
set tempo
stop
Author
intro/verse/outro

G--------------------------------------------|
D-----------7--------------------------------|
A--9--7--9-----9--7--------------------------|
E--------------------9--9--7--9--9--7--2-----|

Chorus

G--------------------------------------------|
D--------------------------------------------|
A-0-0-0-0------------------------------------|
E----------9-9-9-9-2-2-2-2-10-10-10-10-------|

Bridge

G--------------------------------------------|
D--------------------------------------------|
A-0-0-0-0-0-0-0-0-0-0-0-0-0-0-0-0-0-0-0-0-0--|
E--------------------------------------------|

Well that`s what the parts goes down,the order is easy to figure out,good luck :)

            
            
Suggest correction
Creating personal tab
Creating personal tab
You can edit any tab online and save it as your Personal.

You can edit, replace or remove any tab part or add personal notes – all changes will be seen only by you.

Personal tabs can be accessed anytime from any device, even offline.
Learn more »
comments
print report bad tab
7 comments total. Showing first comments.
0 reply
TheRealWave 10 Sep 15, 2008 11:25 PM

Sounds good but on the Chorus E-9's dont sound right to me. Im new to bass so maybe it is.

0 reply
TheRealWave 10 Sep 16, 2008 12:14 AM

I take my last comment back. I was beeing a noob and playing the 7th fret instead of the 9th... oops ;) Great tab!

0 reply
rOck°xxx 30 Feb 11, 2009 07:27 AM

hey. i think it's a good tab. i'm no expert, but i think so.
i can play it easily.

so long!

guest
You may want to rate the tab now too:
select rating
Wanna post a correction for this tab? Suggest correction