Oops, an error
Loading. Please wait.

Alive tab

2,534 views 3 this week
1 commentread comment
1 2 3 4 5
1 last vote to show rating
add to favorites
×
Save as Personal and add changes to this tab that will be seen only by you. Learn more ›
×
You can save this tab as Personal to edit and correct it or add notes. All changes will be seen only by you. Learn more »
launch autoscroll
font size
0
reset
how to read this tab
guitar tuner
edit
Autoscroll
slow
fast
+/-
esc
set tempo
stop
Author
Difficulty
***ATTENTION*** THERE ARE CHORDS HERE TOO, NOT JUST TABS.  LOOK LOWER :-)

-------------------------------------------------------------------------------
                             Alive - Pocket Full Of Rocks
-------------------------------------------------------------------------------
Tabbed by:  CHAD STRADWICK
Email:  bigcdawg17@hotmail.com

Tuning:  Standard (EADGBe)  

Also this is my first tab, so please let me know if anything is wrong.



Intro (X2), Musical Break Between Chorus and 2nd Verse (X2) and Outro (X4)

e|-------------------------------------|
B|-------------------------------------|
G|-------------------------------------|
D|-------------------------------------|
A|-------------------------------------|
E|-3-3-3-3-2-2-2-2/7-7-7-7-7-7-7-7-7\3-|

All Verses:

e|-------------------------------------------------------------------------|
B|-------------------------------------------------------------------------|
G|-------------------------------------------------------------------------|
D|-------------------------------------------------------------------------|
A|-------------------------------------------------------------------------|
E|-3-3-3-3-2-2-2-2/7-7-7-7-7-7-7-7-7\3-3-3-3-3-2-2-2-2/7-7-7-7-7-7-7-7-7\3-|

e|-------------------------------------------------------------------|
B|-------------------------------------------------------------------|
G|-------------------------------------------------------------------|
D|-------------------------------------------------------------------|
A|-------------------------------------------------------------------|
E|-3-3-3-3-2-2-2-2/7-7-7-7-7-7-7-7-7-5-5-5-5-5-5-5-5-5-5-5-5-5-5-5-5-|

3rd Chorus, First Time Through (Right after the Bridge)

e|-----------------------------------------------------------------|
B|-----------------------------------------------------------------|
G|-----------------------------------------------------------------|
D|-----------------0-0-0-0-0-0-0-0---------------------------------|
A|-------------------------------------------------2-2-2-2-2-2-2-2-|
E|-3-3-3-3-3-3-3-3-----------------2-2-2-2-2-2-2-2-----------------|

e|-----------------------------------------------------------------|
B|-----------------------------------------------------------------|
G|-----------------------------------------------------------------|
D|-0-0-0-2-2-4-4-------------0-0-2-2-0-0---------------------------|
A|---------------0-0-0-0-0-0-------------4-4-2-2-0-0-0-0-0-0-0-0-0-|
E|-----------------------------------------------------------------|

Verse 1:

There was a time I was dead inside. 
You'd call my name and I'd try to hide. 
My heart was dark and so full of shame, 
Full of shame. 

But like the dawning of a brand new day 
Your love has chased my shame away. 
How amazing, now to hear You singing over me! 
Over me! 

Chorus 1:

          G
Loudly, I sing 
          D
Loudly, I live 
            F#            Bm
Giving You all I have to give,
                G                      D              A
Until the world knows the Love that's made me so alive 
 A
I'm alive, I'm alive yeah! 

(Musical Break)

Verse 2:

Well, every day I find Your mercy new. 
And every moment that I spend with You 
I am overwhelmed by Grace I can't keep to myself! 
To myself! 

Chorus 2:

          G
Loudly, I sing 
          D
Loudly, I live 
            F#            Bm
Giving You all I have to give,
                G                      D              A
Until the world knows the Love that's made me so alive 
 A
I'm alive! 
          G 
Loudly, I sing 
          D
Loudly, I live 
            F#            Bm
Giving You all I have to give,
                G                      D              A
Until the world knows the Love that's made me so alive 
 A
I'm alive!

Bridge:

          Bm                F#
Out of my sorrow, out of my night, 
                G     A  Bm  E          
You called me into Glorious Light. 
                   Bm               F#            
Where all of the lost, lonely and broken
            E 
Find Your Light. 
            E
Shine Your Light. 

Chorus 3:

Loudly, I sing 
Loudly, I live 
Giving You all I have to give, 
Until the world knows the Love that's made me so alive 
I'm alive!

          G
Loudly, I sing 
          D
Loudly, I live 
            F#            Bm
Giving You all I have to give, 
                G                      D              A
Until the world knows the Love that's made me so alive 
 A
I'm alive, I'm alive! Yeahhhhhhhhhhhhhhhhhh!

Outro:

I'm alive, I'm alive, yeah!



Enjoy and God Bless :-)


| /  slide up
| \  slide down
| h  hammer-on
| p  pull-off
| ~  vibrato
| +  harmonic
| x  Mute note

            
            
Suggest correction
Creating personal tab
Creating personal tab
You can edit any tab online and save it as your Personal.

You can edit, replace or remove any tab part or add personal notes – all changes will be seen only by you.

Personal tabs can be accessed anytime from any device, even offline.
Learn more »
Give kudos to tab author, rate the tab!
1 2 3 4 5
comments
print report bad tab
1 comment total.
0 reply
lwzhou10 80 Feb 12, 2010 02:32 PM

good tab, just needs more
also, here is the solo:

e[-15-15-15-15--14-14-14-14--------------------------]
B[---------------------------12-12-12-12-12-12-12-12-]

guest
You may want to rate the tab now too:
select rating
Wanna post a correction for this tab? Suggest correction