Oops, an error
Loading. Please wait.

The Ultimate Fling Acoustic tab

version 2
version 2

Whole song

Interactive

562 views 1 this week
no commentswrite comment
1 2 3 4 5
3 more votes to show rating
add to favorites
×
Save as Personal and add changes to this tab that will be seen only by you. Learn more ›
×
You can save this tab as Personal to edit and correct it or add notes. All changes will be seen only by you. Learn more »
launch autoscroll
font size
0
reset
how to read this tab
guitar tuner
edit
Autoscroll
slow
fast
+/-
esc
set tempo
stop
Author
Difficulty
intermediate
-------------------------------------------------------------------------------
                             Ultimate Fling (acoustic) - Poets of the Fall
-------------------------------------------------------------------------------
Tabbed by: Leevi Halonen
E-mail: leevi.halonen@gmail.com
As heard here: https://www.youtube.com/watch?v=JjV4t1nibw4
(Note: Video is little out of sync and while Olli does alternate his fingerings, 
everything he plays is enharmonic with this tab)

Tuning: EADGBe (standard)

Chords: Whole song has chord progression of | C#m | B | F#m7 | Asus2 |
     C#m       B              F#m7          Asus2
e|----0--------0---------------0--------------0---------------------------------|
B|----5--------4---------------0--------------0---------------------------------|
G|----6--------4---------------2 or muted-----2---------------------------------|
D|----6--------4 or muted------4--------------2---------------------------------|
A|----4--------2---------------4--------------0---------------------------------|
E|-----------------------------2------------------------------------------------|
(These chord shapes are stricly speaking C#m, Badd4, F#m11 and Asus2 but they fit the progression  as open e and B string create very Poets of the Fallish acoustic sound)

Intro:
        C#m           B
e|-----------------------0--------|
B|-------------5-----------4------|
G|----------6----------------4----|
D|--------------------------------| x 4
A|-------4------------2-----------|
E|--------------------------------|

Verse:
        C#m           B           F#m            Asus2
e|------------------------0---------------------------------------|
B|-------------5------------4-------------------------------0-----|
G|----------6-----------------4--------------------------2--------|
D|----------------------------------------4-----------2-----------| x 8
A|-------4-------------2---------------4-----------0--------------|
E|----------------------------------2-----------------------------|

Pre-chorus:
       F#m           Asus2
e|---------------------0-----------------------|
B|---------------------0-----------------------|
G|---------------------2---strum Asus2 Chord---|
D|------------4--------2-----------------------|
A|---------4-----------0-----------------------|
E|------2--------------------------------------|

Chorus:
Strum the chords
| C#m B | Asus2 | C#m B | F#m7 Asus2 |
| C#m B | Asus2 | C#m B | F#m7 Asus2 |

Interlude (same as Intro)

Verse

Bridge:
Strum the chords but focus on the lower strings
| C#m B | F#m7 Asus2 | C#m B | F#m7 Asus2 |
| C#m B | F#m7 Asus2 | C#m B | F#m7 Asus2 |

Chorus x 2

Bridge2:
Jam around with F#m7 (listen to the video to get the feeling)

Chorus x 2

Outro/Intro

            
            
Suggest correction
Creating personal tab
Creating personal tab
You can edit any tab online and save it as your Personal.

You can edit, replace or remove any tab part or add personal notes – all changes will be seen only by you.

Personal tabs can be accessed anytime from any device, even offline.
Learn more »
Give kudos to tab author, rate the tab!
1 2 3 4 5
comments
print report bad tab
guest
You may want to rate the tab now too:
select rating
Wanna post a correction for this tab? Suggest correction