Oops, an error
Loading. Please wait.

Nicole bass

version 1
version 1

Whole song

Interactive

872 views 1 this week
1 commentread comment
1 2 3 4 5
3 more votes to show rating
add to favorites
×
Save as Personal and add changes to this tab that will be seen only by you. Learn more ›
×
You can save this tab as Personal to edit and correct it or add notes. All changes will be seen only by you. Learn more »
launch autoscroll
font size
0
reset
guitar tuner
edit
Autoscroll
slow
fast
+/-
esc
set tempo
stop
Author
-------------------------------------------------------------------------------
			     NICOLE - Point Blank
-------------------------------------------------------------------------------

Tabbed By : Isaias Garcia (TexasFury)

Tuning: Standard

Links: pointblanksouthernrock.com, en.wikipedia.org/wiki/Point_Blank_(band)


Intro
                   |---3---|                                            |---3---|   
     H        Q    E   E   E     E  E  E  E  Q    Q       Q    H        E   E   E   
G||---------------------------|------------------------|---------------------------|
D||---------------------------|--------7--7--L---------|---------------------------|
A||----------------5h--6h--7--|--0--0-------------0----|--L----0--------5h--6h--7--|
E||---------------------------|------------------------|---------------------------|


                                         |---3---|                            
  E  E  E  E  Q    Q       Q    H        E   E   E     E  E  E  E  Q    Q     
------------------------|---------------------------|------------------------|
--------7--7--L---------|---------------------------|--------7--7--L---------|
--0--0-------------0----|--L----0--------5h--6h--7--|--0--0-------------0----|
------------------------|---------------------------|------------------------|


                |---3---|                                            |---3---|   
  Q    H        E   E   E     E  E  E  E  Q    Q       Q    H        E   E   E   
---------------------------|------------------------|---------------------------|
---------------------------|--------7--7--L---------|---------------------------|
--L----0--------5h--6h--7--|--0--0-------------0----|--L----0--------5h--6h--7--|
---------------------------|------------------------|---------------------------|


                                               |---3---|                              
  E  E  E  E  E  E  E  E     E  E  E  E  E  E  E   E   E     E  E  E  E  E  E  E  E   
--------------------------|-------------------------------|--------------------------|
--------------------------|-------------------------------|--------------------------|
--0--0--0--0--0--0--0--0--|--0--0--0--0--0--0--5h--6h--7--|--0--0--0--0--0--0--0--0--|
--------------------------|-------------------------------|--------------------------|


                             Verse 1
                   |--3--|                                                         
  E  E  E  E  Q    E  E  E     E  E  E  E  E  E  E  E     E  E  E  E  E  E  E  E   
----------------------------|--------------------------|--------------------------|
----------------------------|--------------------------|--------------------------|
--0--0--0--0--0----0--3--5--|--5--5--5--5--5--5--5--5--|--7--7--7--7--7--7--7--7--|
----------------------------|--------------------------|--------------------------|


  E  E  E  E  E  E  E  E     Q    Q    Q    E  E     E  E  E  E  E  E  E  E   
--------------------------|-----------------------|--------------------------|
--------------------------|-----------------------|--------------------------|
--5--5--5--5--5--5--5--5--|--7---------5----7--5--|--L--5--5--5--5--5--5--5--|
--------------------------|-------7---------------|--------------------------|


                                                        |--3--|  |--3--|  |--3--|  |--3--|   
  E  E  E  E  E  E  E  E     E  E  E  E  E  E  E  E     E  E  E  E  E  E  E  E  E  E  E  E   
--------------------------|--------------------------|--------------------------------------|
--------------------------|--------------------------|--------------------------------------|
--7--7--7--7--7--7--7--7--|--5--5--5--5--5--5--5--5--|--7--7--7--7--7--7--5--5--5--5--5--5--|
--------------------------|--------------------------|--------------------------------------|


Chorus 1
  E  E  E  E  E  E  E  E     E  E  E  E  E  E  E  E     E  E  E  E  E  E  E  E   
--------------------------|--------------------------|--------------------------|
--------------------------|--------------------------|--------------------------|
--3--3--3--3--3--3--3--3--|--------------------------|--5--5--5--5--5--5--5--5--|
--------------------------|--3--3--3--3--3--3--3--3--|--------------------------|


                    |--3--|                                                         
  E  E  E  E  E  E  E  E  E     E  E  E  E  E  E  E  E     E  E  E  E  E  E  E  E   
-----------------------------|--------------------------|--------------------------|
-----------------------------|--------------------------|--------------------------|
--3--3--3--3--3--3--3--------|--3--3--3--3--3--3--3--3--|--------------------------|
-----------------------3--5--|--------------------------|--3--3--3--3--3--3--3--3--|


                             |--3--|  |--3--|  |--3--|  |--3--|                              
  E  E  E  E  E  E  E  E     E  E  E  E  E  E  E  E  E  E  E  E     E  E  E  E  E  E  E  E   
--------------------------|--------------------------------------|--------------------------|
--------------------------|--------------------------------------|--------------------------|
--5--5--5--5--5--5--5--5--|--7--7--7--7--7--7--7--7--7--5--6--7--|--0--0--0--0--0--0--0--0--|
--------------------------|--------------------------------------|--------------------------|


                    |---3---|                                                 |--3--|   
  E  E  E  E  E  E  E   E   E     E  E  E  E  E  E  E  E     E  E  E  E  Q    E  E  E   
-------------------------------|--------------------------|----------------------------|
-------------------------------|--------------------------|----------------------------|
--0--0--0--0--0--0--5h--6h--7--|--0--0--0--0--0--0--0--0--|--0--0--0--0--0----0--3--5--|
-------------------------------|--------------------------|----------------------------|


Verse 2
  E  E  E  E  E  E  E  E     E  E  E  E  E  E  E  E     E  E  E  E  E  E  E  E   
--------------------------|--------------------------|--------------------------|
--------------------------|--------------------------|--------------------------|
--5--5--5--5--5--5--5--5--|--7--7--7--7--7--7--7--7--|--5--5--5--5--5--5--5--5--|
--------------------------|--------------------------|--------------------------|


  Q    Q    Q    E  E     E  E  E  E  E  E  E  E     E  E  E  E  E  E  E  E   
-----------------------|--------------------------|--------------------------|
-----------------------|--------------------------|--------------------------|
--7---------5----7--5--|--L--5--5--5--5--5--5--5--|--7--7--7--7--7--7--7--7--|
-------7---------------|--------------------------|--------------------------|


                                                                  Chorus 2
                             |--3--|  |--3--|  |--3--|  |--3--|                              
  E  E  E  E  E  E  E  E     E  E  E  E  E  E  E  E  E  E  E  E     E  E  E  E  E  E  E  E   
--------------------------|--------------------------------------|--------------------------|
--------------------------|--------------------------------------|--------------------------|
--5--5--5--5--5--5--5--5--|--7--7--7--7--7--7--5--5--5--5--5--5--|--3--3--3--3--3--3--3--3--|
--------------------------|--------------------------------------|--------------------------|


                                                                          |--3--|   
  E  E  E  E  E  E  E  E     E  E  E  E  E  E  E  E     E  E  E  E  E  E  E  E  E   
--------------------------|--------------------------|-----------------------------|
--------------------------|--------------------------|-----------------------------|
--------------------------|--5--5--5--5--5--5--5--5--|--3--3--3--3--3--3--3--------|
--3--3--3--3--3--3--3--3--|--------------------------|-----------------------3--5--|


  E  E  E  E  E  E  E  E     E  E  E  E  E  E  E  E     E  E  E  E  E  E  E  E   
--------------------------|--------------------------|--------------------------|
--------------------------|--------------------------|--------------------------|
--3--3--3--3--3--3--3--3--|--------------------------|--5--5--5--5--5--5--5--5--|
--------------------------|--3--3--3--3--3--3--3--3--|--------------------------|


Guitar Solo
  Q      Q    Q    Q       Q      Q    Q    Q       Q      Q    Q    Q       Q      Q    Q    Q     
------------------------|------------------------|------------------------|------------------------|
------------------------|------------------------|------------------------|------------------------|
--7----5g7----7----7----|--7----5g7----7----7----|--7----5g7----7----7----|--7----5g7----7----7----|
------------------------|------------------------|------------------------|------------------------|


  Q      Q    Q    Q       Q      Q    Q    Q       Q      Q    Q    Q       Q      Q    Q    Q     
------------------------|------------------------|------------------------|------------------------|
------------------------|------------------------|------------------------|------------------------|
--7----5g7----7----7----|--7----5g7----7----7----|--7----5g7----7----7----|--7----5g7----7----7----|
------------------------|------------------------|------------------------|------------------------|


  Q      Q    Q    Q       Q      Q    Q    Q       Q      Q    Q    Q       Q      Q    Q    Q     
------------------------|------------------------|------------------------|------------------------|
------------------------|------------------------|------------------------|------------------------|
--7----5g7----7----7----|--7----5g7----7----7----|--7----5g7----7----7----|--7----5g7----7----7----|
------------------------|------------------------|------------------------|------------------------|


                                            |---3--|     |--3--|  |--3--|  |--3--|  |--3--|   
  Q      Q    Q    Q       Q      Q    Q    E   E  E     E  E  E  E  E  E  E  E  E  E  E  E   
------------------------|-----------------------------|--------------------------------------|
------------------------|-----------------------------|--------------------------------------|
--7----5g7----7----7----|--7----5g7----7----7p--5-----|--------------------------------------|
------------------------|--------------------------7--|--0--0--0--0--0--0--0--0--0--0--0--0--|


                 |--3--|                                                  |---3---|   
  Q    Q    Q    E  E  E     E  E  E  E  E  E  E  E     E  E  E  E  E  E  E   E   E   
--------------------------|--------------------------|-------------------------------|
--------------------------|--------------------------|-------------------------------|
-----------------5--6--7--|--0--0--0--0--0--0--0--0--|--0--0--0--0--0--0--5h--6h--7--|
--0-----------------------|--------------------------|-------------------------------|


                                                        Verse 3
                                              |--3--|                              
  E  E  E  E  E  E  E  E     E  E  E  E  Q    E  E  E     E  E  E  E  E  E  E  E   
--------------------------|----------------------------|--------------------------|
--------------------------|----------------------------|--------------------------|
--0--0--0--0--0--0--0--0--|--0--0--0--0--0----0--3--5--|--5--5--5--5--5--5--5--5--|
--------------------------|----------------------------|--------------------------|


  E  E  E  E  E  E  E  E     E  E  E  E  E  E  E  E     Q    Q    Q    E  E   
--------------------------|--------------------------|-----------------------|
--------------------------|--------------------------|-----------------------|
--7--7--7--7--7--7--7--7--|--5--5--5--5--5--5--5--5--|--7---------5----7--5--|
--------------------------|--------------------------|-------7---------------|


  E  E  E  E  E  E  E  E     E  E  E  E  E  E  E  E     E  E  E  E  E  E  E  E   
--------------------------|--------------------------|--------------------------|
--------------------------|--------------------------|--------------------------|
--L--5--5--5--5--5--5--5--|--7--7--7--7--7--7--7--7--|--5--5--5--5--5--5--5--5--|
--------------------------|--------------------------|--------------------------|


                                      Chorus 3
  |--3--|  |--3--|  |--3--|  |--3--|                                                  |--3--|   
  E  E  E  E  E  E  E  E  E  E  E  E     E  E  E  E  E  E  E  E     E  E  E  E  E  E  E  E  E   
--------------------------------------|--------------------------|-----------------------------|
--------------------------------------|--------------------------|-----------------------------|
--7--7--7--7--7--7--5--5--5--5--5--5--|--3--3--3--3--3--3--5--3--|-----------------------3--5--|
--------------------------------------|--------------------------|--3--3--3--3--3--3--5--------|


                                              |--3--|                              
  E  E  E  E  E  E  E  E     E  E  E  E  Q    E  E  E     E  E  E  E  E  E  E  E   
--------------------------|----------------------------|--------------------------|
--------------------------|----------------------------|--------------------------|
--5--5--5--5--5--5--5--5--|--3--3--3--3--3-------------|--3--3--3--3--3--3--3--3--|
--------------------------|-------------------1--3--5--|--------------------------|


                                                              |--3--|  |--3--|  |--3--|   
  E  E  E  E  E  E  E  E     E  E  E  E  E  E  E  E     E  E  E  E  E  E  E  E  E  E  E   
--------------------------|--------------------------|--------------------------5--------|
--------------------------|--------------------------|--------------------5--7-----7--5--|
--------------------------|--5--5--5--5--5--5--5--5--|--3--3--3--3--3--3-----------------|
--3--3--3--3--3--3--3--3--|--------------------------|-----------------------------------|


                    |--3--|                       |--3--|                              
  E  E  E  E  E  E  E  E  E     E  E  E  E  E  E  E  E  E     E  E  E  E  E  E  E  E   
-----------------------------|-----------------------------|--------------------------|
-----------------------------|-----------------------------|--------------------------|
--3--3--3--3--3--3--3--------|-----------------------3--5--|--5--5--5--5--5--5--5--5--|
-----------------------0--1--|--3--3--3--3--3--3--3--------|--------------------------|


                   |--3--|                                                         
  E  E  E  E  Q    E  E  E     E  E  E  E  E  E  E  E     E  E  E  E  E  E  E  E   
----------------------------|--------------------------|--------------------------|
----------------------------|--------------------------|--------------------------|
--3--3--3--3--3-------------|--3--3--3--3--3--3--3--3--|--------------------------|
-------------------1--3--5--|--------------------------|--3--3--3--3--3--3--3--3--|


                                                                 Outro
                            |--3--|  |--3--|  |--3--|  |--3--|                            
  E  E  E  E  E  E  Q       E  E  E  E  E  E  E  E  E  E  E  E     E  E  E  E  Q    Q     
-------------------------|--------------------------------------|------------------------|
-------------------------|--------------------------------------|--------7--7--L---------|
--5--5--5--5--5--5--5----|--7--7--7--7--7--7--7--7--7--5--6--7--|--0--0-------------0----|
-------------------------|--------------------------------------|------------------------|


                         |--3--|                                     |---3---|   
  Q    H        E  E     E  E  E    E  E  Q    Q       Q    H        E   E   E   
----------------------|-----------------------------|---------------------------|
----------------------|-----------5g7--7--L---------|---------------------------|
--L----0--------5--7--|--0--0--0---------------0----|--L----0--------5h--6h--7--|
----------------------|-----------------------------|---------------------------|


                                           |---3---|                             
  E  E    E  E  Q    Q       Q    H        E   E   E     E  E    E  E  H         
--------------------------|---------------------------|-------------------------|
--------5g7--7--L---------|---------------------------|--------5g7--7--L--------|
--0--0---------------0----|--L----0--------5h--6h--7--|--0--0-------------------|
--------------------------|---------------------------|-------------------------|


  W                   W                   W                   W                 
-------------------|-------------------|-------------------|-------------------|
--L----------------|--L----------------|--L----------------|--L----------------|
-------------------|-------------------|-------------------|-------------------|
-------------------|-------------------|-------------------|-------------------|

   
  W                                          
-------------------------------------------||
--L----------------------------------------||
-------------------------------------------||
-------------------------------------------||




Duration Legend
---------------
W - whole
H - half
Q - quarter
E - 8th
S - 16th
T - 32nd
X - 64th
. - note dotted
|-n-|  - n-tuplets


Tablature Legend
----------------
L - tied note
x - dead note
g - grace note
(n) - ghost note
> - accentuded note
NH - natural harmonic
AH - artificial harmonic
TH - tapped harmonic
SH - semi harmonic
PH - pitch harmonic
h - hammer on
p - pull off
b - bend
br - bendRelease
pb - preBend
pbr - preBendRelease
brb - bendReleaseBend
\n/ - tremolo bar dip
\n - tremolo bar dive
-/n - tremolo bar Release up
/n\ - tremolo bar inverted dip
/n - tremolo bar return
-\n - tremolo bar Release down
S - shift slide
s - legato slide
/ -  slide into from below or out of upwards
\ -  slide into from above or out of downwards
~ - vibrato
W - wide vibrato
tr - trill
TP - tremolo picking
T - tapping
S - slap
P - pop
< - fade in
^ - brush up
v - brush down

            
            
Suggest correction
Creating personal tab
Creating personal tab
You can edit any tab online and save it as your Personal.

You can edit, replace or remove any tab part or add personal notes – all changes will be seen only by you.

Personal tabs can be accessed anytime from any device, even offline.
Learn more »
Give kudos to tab author, rate the tab!
1 2 3 4 5
comments
print report bad tab
1 comment total.
0 reply
TexasFury 9,040 Nov 13, 2008 06:48 AM

This a 100% Certified Texas Tab™. Don't settle for less. Only a song by a Texas band that is tabbed by a Texas Shredder in The Great Republic of Texas can be labeled a Genuine Texas Tab™. SRV approved.

DON'T MESS WITH TEXAS

guest
You may want to rate the tab now too:
select rating
Wanna post a correction for this tab? Suggest correction