Oops, an error
Loading. Please wait.

Nicole tab

version 1
version 1

Whole song

Interactive

3,876 views 18 this week
2 commentsread comments
1 2 3 4 5
3 more votes to show rating
add to favorites
×
Save as Personal and add changes to this tab that will be seen only by you. Learn more ›
×
You can save this tab as Personal to edit and correct it or add notes. All changes will be seen only by you. Learn more »
launch autoscroll
font size
0
reset
how to read this tab
guitar tuner
edit
Autoscroll
slow
fast
+/-
esc
set tempo
stop
Author
Tabbers playing skills
advanced ++
-------------------------------------------------------------------------------
                             NICOLE - Point Blank
-------------------------------------------------------------------------------

Tabbed by: Isaias Garcia (TexasFury)

Tuning: Standard

Links: pointblanksouthernrock.com, en.wikipedia.org/wiki/Point_Blank_(band)


Rhythm - left

   Intro
     W                   Q    E  E  H           W                   Q    E  E  H
E||-------------------|----------------------|-------------------|----------------------|
B||-------------------|----------------------|-------------------|----------------------|
G||-------------------|-------5--5--L--------|--L----------------|--L----5--5--L--------|
D||-------------------|-------5--5--L--------|--L----------------|--L----5--5--L--------|
A||-------------------|----------------------|-------------------|----------------------|
E||-------------------|----------------------|-------------------|----------------------|


  W                   Q    E  E  H                            W
-------------------|---------------------------------------|-------------------|
-------------------|---------------------------------------|-------------------|
--L----------------|--L----5--5--L-------------------------|--L----------------|
--L----------------|--L----5--5--L-------------------------|--L----------------|
-------------------|---------------------------------------|-------------------|
-------------------|---------------------------------------|-------------------|


                                                    PM PM
                                      |---3---|
  Q    E  E  H           H.           E   E   E     E  E  Q    E  E  Q
----------------------|--------------------------|------------------------|
----------------------|--------------------------|------------------------|
--L----5--5--L--------|--L-----------------------|--------5----7--5--L----|
--L----5--5--L--------|--L-----------------------|--------5----7--5--L----|
----------------------|---------------5h--6h--7--|--0--0------------------|
----------------------|--------------------------|------------------------|


                              PM PM
                  |--3--|                                                |--3--|
  Q    E  E  Q    E  E  E     E  E  Q      E  E  Q       Q    E  E  Q    E  E  E
---------------------------|--------------------------|---------------------------|
---------------------------|--------------------------|---------------------------|
--4----4--5--L-------------|--------5----5g7--5--L----|--4----4--5--L-------------|
--4----4--5--L-------------|--------5----5g7--5--L----|--4----4--5--L-------------|
------------------5--6--7--|--0--0--------------------|------------------5--6--7--|
---------------------------|--------------------------|---------------------------|


Verse 1
     PM    PM    PM             PM    PM    PM             PM    PM    PM
  E  E  E  E  E  E  E  E     E  E  E  E  E  E  E  E     E  E  E  E  E  E  E  E
--------------------------|--------------------------|--------------------------|
--------------------------|--------------------------|--------------------------|
--------------------------|--------------------------|--------------------------|
--7-----7-----7-----7--7--|--9-----9-----9-----9--9--|--7-----7-----7-----7-----|
--5--5--5--5--5--5--5--5--|--7--7--7--7--7--7--7--7--|--5--5--5--5--5--5--5--5--|
--------------------------|--------------------------|--------------------------|


                             PM    PM    PM             PM    PM    PM    PM
  Q    Q    Q    E  E     E  E  E  E  E  E  E  E     E  E  E  E  E  E  E  E
-----------------------|--------------------------|--------------------------|
-----------------------|--------------------------|--------------------------|
-----------------------|--------------------------|--------------------9-----|
--9---------7----9--7--|--L-----7-----7-----7--7--|--9-----9-----9-----9-----|
--7----9----5----7--5--|--L--5--5--5--5--5--5--5--|--7--7--7--7--7--7--7--7--|
-------7---------------|--------------------------|--------------------------|


                                                                 Chorus 1
     PM    PM    PM                                                          PM    PM
                             |--3--|  |--3--|  |--3--|  |--3--|
  E  E  E  E  E  E  E  E     E  E  E  E  E  E  E  E  E  E  E  E     E  E  E  E  E  E  Q
--------------------------|--------------------------------------|-------------------------|
--------------------------|--------------------------------------|-------------------------|
--------------------7--7--|--------------------------------------|-------------------------|
--7-----7-----7-----7--7--|--9--9--9--9--9--9--7--7--7--7--7--7--|--5--5--5-----5-----5----|
--5--5--5--5--5--5--5--5--|--7--7--7--7--7--7--5--5--5--5--5--5--|--3--3--3--3--3--3--3----|
--------------------------|--------------------------------------|-------------------------|


     PM    PM    PM            PM    PM    PM                  PM    PM
                                                                        |--3--|
  E  E  E  E  E  E  Q       E  E  E  E  E  E  Q       E  E  E  E  E  E  E  E  E
-------------------------|-------------------------|-----------------------------|
-------------------------|-------------------------|-----------------------------|
-------------------------|-------------------------|-----------------------------|
-------------------------|--7-----7-----7-----7----|--5--5--5-----5-----5--5--5--|
--5-----5-----5-----5----|--5--5--5--5--5--5--5----|--3--3--3--3--3--3--3--3--3--|
--3--3--3--3--3--3--3----|-------------------------|-----------------------------|


     PM    PM    PM             PM    PM    PM            PM    PM    PM
  E  E  E  E  E  E  E  E     E  E  E  E  E  E  Q       E  E  E  E  E  E  Q
--------------------------|-------------------------|-------------------------|
--------------------------|-------------------------|-------------------------|
--------------------------|-------------------------|-------------------------|
--5-----5-----5-----5--3--|-------------------------|--7-----7-----7-----7----|
--3--3--3--3--3--3--3-----|--5-----5-----5-----5----|--5--5--5--5--5--5--5----|
--------------------------|--3--3--3--3--3--3--3----|-------------------------|


                                      PM PM
        |--3--|  |--3--|  |--3--|                                              |--3--|
  E  E  E  E  E  E  E  E  E  E  E     E  E  Q    E  E  Q       Q    E  E  Q    E  E  E
-----------------------------------|------------------------|---------------------------|
-----------------------------------|------------------------|---------------------------|
-----------------------------------|--------5----7--5--L----|--4----4--5--L-------------|
--9--9--9--9--9--9--9--9-----------|--------5----7--5--L----|--4----4--5--L-------------|
--7--7--7--7--7--7--7--7--5--6--7--|--0--0------------------|------------------5--6--7--|
-----------------------------------|------------------------|---------------------------|


                                                       Verse 2
  PM PM                                                     PM    PM    PM
                                             |--3--|
  E  E  Q      E  E  Q       Q    E  E  Q    E  E  E     E  E  E  E  E  E  E  E
--------------------------|---------------------------|--------------------------|
--------------------------|---------------------------|--------------------------|
--------5----5g7--5--L----|--4----4--5--L-------------|--------------------------|
--------5----5g7--5--L----|--4----4--5--L-------------|--7-----7-----7-----7--7--|
--0--0--------------------|------------------5--6--7--|--5--5--5--5--5--5--5--5--|
--------------------------|---------------------------|--------------------------|


     PM    PM    PM          PM PM    PM    PM
  E  E  E  E  E  E  E  E     E  E  E  E  E  E  E  E     Q    Q    Q    E  E
--------------------------|--------------------------|-----------------------|
--------------------------|--------------------------|-----------------------|
--------------------------|--------------------------|-----------------------|
--9-----9-----9-----9--9--|--------7-----7-----7-----|--9---------7----9--7--|
--7--7--7--7--7--7--7--7--|--5--5--5--5--5--5--5--5--|--7---------5----7--5--|
--------------------------|--------------------------|-------7---------------|


     PM    PM    PM             PM    PM    PM             PM    PM    PM
  E  E  E  E  E  E  E  E     E  E  E  E  E  E  E  E     E  E  E  E  E  E  Q
--------------------------|--------------------------|-------------------------|
--------------------------|--------------------------|-------------------------|
--------------------------|--------------------9--9--|-------------------------|
--L-----7-----7-----7--7--|--9-----9-----9-----9--9--|--7-----7-----7-----7----|
--L--5--5--5--5--5--5--5--|--7--7--7--7--7--7--7--7--|--5--5--5--5--5--5--5----|
--------------------------|--------------------------|-------------------------|


                                       Chorus 2
                                                  PM    PM            PM    PM    PM
  |--3--|  |--3--|  |--3--|  |--3--|
  E  E  E  E  E  E  E  E  E  E  E  E     E  E  E  E  E  E  Q       E  E  E  E  E  E  E  E
--------------------------------------|-------------------------|--------------------------|
--------------------------------------|-------------------------|--------------------------|
--------------------------------------|-------------------------|--------------------------|
--9--9--9--9--9--9--7--7--7--7--7--7--|--5--5--5-----5-----5----|--------------------------|
--7--7--7--7--7--7--5--5--5--5--5--5--|--3--3--3--3--3--3--3----|--5-----5-----5-----5--5--|
--------------------------------------|-------------------------|--3--3--3--3--3--3--3--3--|


     PM    PM    PM            PM    PM    PM                PM    PM    PM PM PM
                                              |--3--|
  E  E  E  E  E  E  Q       E  E  E  E  E  E  E  E  E     E  E  E  E  E  E  E  E
-------------------------|-----------------------------|--------------------------|
-------------------------|-----------------------------|--------------------------|
-------------------------|-----------------------------|--------------------------|
--7-----7-----7-----7----|--5-----5-----5-----5--5--5--|--5-----5-----5-----5--5--|
--5--5--5--5--5--5--5----|--3--3--3--3--3--3--3--3--3--|--3--3--3--3--3--3--3--3--|
-------------------------|-----------------------------|--------------------------|


                                                        Guitar Solo
                                  PM    PM    PM
        |--3--|
  E  E  E  E  E  E  E  Q       E  E  E  E  E  E  E  E     W                   W
----------------------------|--------------------------|-------------------|-------------------|
----------------------------|--------------------------|-------------------|-------------------|
----------------------------|--------------------------|-------------------|-------------------|
----------------------------|--7-----7-----7-----7--7--|--9----------------|--L----------------|
--5-----5--5--5--5-----5----|--5--5--5--5--5--5--5--5--|--7----------------|--L----------------|
--3--3--3--3--3--3--3--3----|--------------------------|-------------------|-------------------|


  W                   W                   W                   W
-------------------|-------------------|-------------------|-------------------|
-------------------|-------------------|-------------------|-------------------|
-------------------|-------------------|-------------------|-------------------|
-------------------|-------------------|-------------------|-------------------|
-------------------|-------------------|-------------------|-------------------|
-------------------|-------------------|-------------------|-------------------|


       |----3----|   |----3---|
  Q    Q     S   S   E   E    E   Q        W                    Q     Q     Q     Q
------------14p-13p-12-----------------|--------------------|--12----------12----------|
------------------------14p--12--------|--------------------|--12----12----12----12----|
---------------------------------14----|---L----------------|--------------------------|
---------------------------------------|--------------------|--------------------------|
---------------------------------------|--------------------|--------------------------|
---------------------------------------|--------------------|--------------------------|


   Q     Q     Q     Q        Q     Q     Q     Q        Q     Q     Q     Q
--12----12----12----12----|--14----14----14----14----|--14----14----14----16----|
--12----12----12----12----|--14----14----14----14----|--14----14----14----16----|
--------------------------|--------------------------|--------------------------|
--------------------------|--------------------------|--------------------------|
--------------------------|--------------------------|--------------------------|
--------------------------|--------------------------|--------------------------|


                                                                           |-3-|
   Q     Q     Q     Q        Q     Q     Q     Q        Q     Q     Q     E   Q
--17----17----17----16----|--14----14----14----14----|--12----12----14----14--14----|
--17----17----17----16----|--14----14----14----14----|--12----12----14----14--14----|
--------------------------|--------------------------|------------------------------|
--------------------------|--------------------------|------------------------------|
--------------------------|--------------------------|------------------------------|
--------------------------|--------------------------|------------------------------|


                            PM PM
                |--3--|                                              |--3--|
  H        Q    E  E  E     E  E  Q    E  E  Q       Q    E  E  Q    E  E  E
-------------------------|------------------------|---------------------------|
-------------------------|------------------------|---------------------------|
-------------------------|--------5----7--5--L----|--4----4--5--L-------------|
-------------------------|--------5----7--5--L----|--4----4--5--L-------------|
----------------5--6--7--|--0--0------------------|------------------5--6--7--|
-------------------------|------------------------|---------------------------|


                                                       Verse 3
  PM PM                                                     PM    PM PM PM
                                             |--3--|
  E  E  Q      E  E  Q       Q    E  E  Q    E  E  E     E  E  E  E  E  E  E  E
--------------------------|---------------------------|--------------------------|
--------------------------|---------------------------|--------------------------|
--------5----5g7--5--L----|--4----4--5--L-------------|--------------------------|
--------5----5g7--5--L----|--4----4--5--L-------------|--7-----7-----------7--7--|
--0--0--------------------|------------------5--6--7--|--5--5--5--5--5--5--5--5--|
--------------------------|---------------------------|--------------------------|


  PM PM    PM PM PM
  E  E  E  E  E  E  E  E     E  E  E  E  E  E  Q       Q    Q    Q    E  E
--------------------------|-------------------------|-----------------------|
--------------------------|-------------------------|-----------------------|
--------------------------|-------------------------|-----------------------|
--------9-----------9--9--|--7-----7-----7-----7----|--9---------7----9--7--|
--7--7--7--7--7--7--7--7--|--5--5--5--5--5--5--5----|--7----9----5----7--5--|
--------------------------|-------------------------|-------7---------------|


          PM PM PM          PM PM    PM PM PM          PM
  Q    E  E  E  E  E  E     E  E  E  E  E  E  E  E     E  E  E  E  E  E  Q
-------------------------|--------------------------|-------------------------|
-------------------------|--------------------------|-------------------------|
-------------------------|--------------------------|-------------------------|
--L----7-----------7--7--|--------9-----------9--9--|-----7--7--------7--7----|
--L----5--5--5--5--5--5--|--7--7--7--7--7--7--7--7--|--5--5--5--5--5--5--5----|
-------------------------|--------------------------|-------------------------|


                                       Chorus 3
                                                  PM    PM            PM    PM    PM    PM
  |--3--|  |--3--|  |--3--|  |--3--|
  E  E  E  E  E  E  E  E  E  E  E  E     E  E  E  E  E  E  Q       E  E  E  E  E  E  E  E
--------------------------------------|-------------------------|--------------------------|
--------------------------------------|-------------------------|--------------------------|
--------------------------------------|--------------------5----|--------------------------|
--9--9--9--9--9--9--7--7--7--7--7--7--|--5--5--5-----5-----5----|--------------------------|
--7--7--7--7--7--7--5--5--5--5--5--5--|--3--3--3--3--3--3--3----|--5-----5-----5-----5-----|
--------------------------------------|-------------------------|--3--3--3--3--3--3--3--3--|


     PM    PM    PM                  PM    PM                PM    PM    PM
                                              |--3--|
  E  E  E  E  E  E  Q       E  E  E  E  E  E  E  E  E     E  E  E  E  E  E  Q
-------------------------|-----------------------------|-------------------------|
-------------------------|-----------------------------|-------------------------|
-------------------------|-----------------------------|-------------------------|
--7-----7-----7-----7----|--5--5--5-----5-----5--5--5--|--5-----5-----5-----5----|
--5--5--5--5--5--5--5----|--3--3--3--3--3--3--3--3--3--|--3--3--3--3--3--3--3----|
-------------------------|-----------------------------|-------------------------|


     PM          PM             PM    PM    PM
                                                              |--3--|  |--3--|  |--3--|
  E  E  E  E  E  E  E  E     E  E  E  E  E  E  E  E     E  E  E  E  E  E  E  E  E  E  E
--------------------------|--------------------------|-----------------------------------|
--------1--0--0-----------|--------------------------|-----------------------------------|
--------0--0--0-----0--0--|--------------------------|-----------------------------------|
--------2--0--0-----0--0--|--7-----7-----7-----7--7--|--5--5--5--5--5--5--5--5--5--5--5--|
--------------------------|--5--5--5--5--5--5--5--5--|--3--3--3--3--3--3--3--3--3--3--3--|
--3--3-----------3--------|--------------------------|-----------------------------------|


     PM    PM    PM            PM          PM             PM    PM
  E  E  E  E  E  E  Q       E  E  E  E  E  E  E  E     E  E  E  E  E  E  Q
-------------------------|--------------------------|-------------------------|
-------------------------|--------1--0--0-----------|-------------------------|
-------------------------|--------0--0--0-----0--0--|-------------------------|
--5-----5-----5-----5----|--------2--0--0-----0--0--|--7-----7-----7--7--7----|
--3--3--3--3--3--3--3----|--------------------------|--5--5--5--5--5--5--5----|
-------------------------|--3--3-----------3--------|-------------------------|


     PM                                  PM    PM            PM          PM
                    |--3--|
  E  E  E  E  E  E  E  E  E     E  E  E  E  E  E  Q       E  E  E  E  E  E  E  E
-----------------------------|-------------------------|--------------------------|
-----------------------------|-------------------------|--------1--0--0-----------|
--------------------5--5--5--|--------------------5----|--------0--0--0-----0--0--|
--5-----5--5--5--5--5--5--5--|--5--5--5-----5-----5----|--------2--0--0-----0--0--|
--3--3--3--3--3--3--3--3--3--|--3--3--3--3--3--3--3----|--------------------------|
-----------------------------|-------------------------|--3--3-----------3--------|


                                                                  Outro
     PM    PM    PM                                                 PM PM
                             |--3--|  |--3--|  |--3--|  |--3--|
  E  E  E  E  E  E  Q        E  E  E  E  E  E  E  E  E  E  E  E     E  E  E    E  H
--------------------------|--------------------------------------|-------------------------|
--------------------------|--------------------------------------|-------------------------|
--------------------------|--------------------------------------|--------5--4g5--L--------|
--7-----7-----7-----7-----|--9--9--9--9--9--9--9--9--9-----------|--------5--4g5--L--------|
--5--5--5--5--5--5--5~----|--7--7--7--7--7--7--7--7--7--5--6--7--|--0--0-------------------|
--------------------------|--------------------------------------|-------------------------|


                              PM PM
                |---3---|                                             |---3---|
  H.            E   E   E     E  E  E    E  H           H.            E   E   E
---------------------------|-------------------------|---------------------------|
---------------------------|-------------------------|---------------------------|
--L~-----------------------|--------5--4g5--L--------|--L~-----------------------|
--L~-----------------------|--------5--4g5--L--------|--L~-----------------------|
----------------5h--6h--7--|--0--0-------------------|----------------5h--6h--7--|
---------------------------|-------------------------|---------------------------|


  PM PM                                                 PM PM
                                          |---3---|
  E  E  E    E  H           H.            E   E   E     E  E  E    E  H           W
-------------------------|---------------------------|-------------------------|-------------------|
-------------------------|---------------------------|-------------------------|-------------------|
--------5--4g5--L--------|--L~-----------------------|--------5--4g5--L--------|--L----------------|
--------5--4g5--L--------|--L~-----------------------|--------5--4g5--L--------|--L----------------|
--0--0-------------------|----------------5h--6h--7--|--0--0-------------------|-------------------|
-------------------------|---------------------------|-------------------------|-------------------|


  W                   W                                           W
-------------------|-------------------------------------------|-------------------|
-------------------|-------------------------------------------|-------------------|
--L----------------|--L----------------------------------------|--L----------------|
--L----------------|--L----------------------------------------|--L----------------|
-------------------|-------------------------------------------|-------------------|
-------------------|-------------------------------------------|-------------------|


  W
-------------------||
-------------------||
--L----------------||
--L----------------||
-------------------||
-------------------||

Rhythm - right

                   |---3---|                                            |---3---|
     H        Q    E   E   E     E  E    E  E  H           H.           E   E   E
E||---------------------------|-------------------------|--------------------------|
B||---------------------------|--------4g5--5--L--------|--L-----------------------|
G||---------------------------|--------4g5--5--L--------|--L-----------------------|
D||---------------------------|-------------------------|--------------------------|
A||----------------5h--6h--7--|--0--0-------------------|---------------5h--6h--7--|
E||---------------------------|-------------------------|--------------------------|


                                         |---3---|
  E  E    E  E  H           H.           E   E   E     E  E    E  E  H
-------------5--L--------|--L-----------------------|-------------------------|
--------4g5--5--L--------|--L-----------------------|--------4g5--5--L--------|
--------4g5--5--L--------|--L-----------------------|--------4g5--5--L--------|
-------------------------|--------------------------|-------------------------|
--0--0-------------------|---------------5h--6h--7--|--0--0-------------------|
-------------------------|--------------------------|-------------------------|


               |---3---|                                            |---3---|
  H.           E   E   E     E  E    E  E  H           H.           E   E   E
--------------------------|-------------5--L--------|--L-----------------------|
--L-----------------------|--------4g5--5--L--------|--L-----------------------|
--L-----------------------|--------4g5--5--L--------|--L-----------------------|
--------------------------|-------------------------|--------------------------|
---------------5h--6h--7--|--0--0-------------------|---------------5h--6h--7--|
--------------------------|-------------------------|--------------------------|


                                           |---3---|
  E  E  Q    E  E  Q       Q    E  E  Q    E   E   E     E  E  Q    E  E  Q
------------------------|-----------------------------|------------------------|
------------------------|-------4--5--L---------------|------------------------|
--------5----7--5--L----|--4----4--5--L---------------|--------5----7--5--L----|
--------5----7--5--L----|--4----4--5--L---------------|--------5----7--5--L----|
--0--0------------------|------------------5h--6h--7--|--0--0------------------|
------------------------|-----------------------------|------------------------|


                                   PM    PM    PM             PM    PM    PM PM
                  |---3---|
  Q    E  E  Q    E   E   E     E  E  E  E  E  E  E  E     E  E  E  E  E  E  E  E
-----------------------------|--------------------------|--------------------------|
-------4--5--L---------------|--7-----------------------|--------------------------|
--4----4--5--L---------------|--7-----------------------|--------------------------|
--4----4--5--L---------------|--7-----7-----7-----7--7--|--9-----9-----9-----9--9--|
------------------5h--6h--7--|--5--5--5--5--5--5--5--5--|--7--7--7--7--7--7--7--7--|
-----------------------------|--------------------------|--------------------------|


     PM    PM    PM    PM                               PM    PM    PM    >
  E  E  E  E  E  E  E  E     Q    Q    Q    E  E     E  E  E  E  E  E  E  E
--------------------------|-----------------------|---------------------------|
--------------------------|--------------------7--|--L------------------------|
--------------------------|-----------------9--7--|--L------------------------|
--7-----7-----7-----7-----|--9---------7----9--7--|--L-----7-----7-----7--7S--|
--5--5--5--5--5--5--5--5--|--7----9----5----7--5--|--L--5--5--5--5--5--5--5S--|
--------------------------|-------7---------------|---------------------------|


     PM PM PM PM PM             PM          PM    PM
                                                        |--3--|  |--3--|  |--3--|  |--3--|
  E  E  E  E  E  E  E  E     E  E  E  E  E  E  E  E     E  E  E  E  E  E  E  E  E  E  E  E
--------------------------|--------------------------|--------------------------------------|
--------------------------|--------------------7-----|--9--9--9--9--9--9--7--7--7--7--7--7--|
--------------------------|--------------------7-----|--9--9--9--9--9--9--7--7--7--7--7--7--|
--9-----------------9--9--|--7-----7--7--7-----7-----|--9--9--9--9--9--9--7--7--7--7--7--7--|
--7--7--7--7--7--7--7--7--|--5--5--5--5--5--5--5--5--|--7--7--7--7--7--7--5--5--5--5--5--5--|
--------------------------|--------------------------|--------------------------------------|


     PM    PM    PM            PM    PM    PM    PM       PM    PM    PM
  E  E  E  E  E  E  Q       E  E  E  E  E  E  E  E     E  E  E  E  E  E  Q
-------------------------|--------------------------|-------------------------|
-------------------------|--------------------------|-------------------------|
--5-----5-----5-----5----|--------------------------|--7-----7-----7-----7----|
--5-----5-----5-----5----|--------------------------|--7-----7-----7-----7----|
--3--3--3--3--3--3--3----|--5-----5-----5-----5-----|--5--5--5--5--5--5--5----|
-------------------------|--3--3--3--3--3--3--3--3--|-------------------------|


           PM    PM    >                 PM    PM            PM    PM    PM    PM
                    |--3--|
  E  E  E  E  E  E  E  E  E     E  E  E  E  E  E  Q       E  E  E  E  E  E  E  E
-----------------------------|-------------------------|--------------------------|
-----------------------5-----|--------5-----------5----|--------------------------|
-----------------------5-----|--------5-----------5----|--------------------------|
--5--5--5-----5-----5--5--5--|--5--5--5-----5-----5----|--------------------------|
--3--3--3--3--3--3--3--3--3--|--3--3--3--3--3--3--3----|--5-----5-----5-----5-----|
-----------------------------|-------------------------|--3--3--3--3--3--3--3--3--|


     PM    PM    PM
                            |--3--|  |--3--|  |--3--|  |--3--|
  E  E  E  E  E  E  Q       E  E  E  E  E  E  E  E  E  E  E  E     E  E  Q    E  E  Q
-------------------------|--------------------------------------|------------------------|
-------------------------|--9--9--9--9--9--9--9--9--9-----------|------------------------|
--7-----7-----7-----7----|--9--9--9--9--9--9--9--9--9-----------|--------5----7--5--L----|
--7-----7-----7-----7----|--9--9--9--9--9--9--9--9--9-----------|--------5----7--5--L----|
--5--5--5--5--5--5--5----|--7--7--7--7--7--7--7--7--7--5--6--7--|--0--0------------------|
-------------------------|--------------------------------------|------------------------|


                  |---3---|                                              |---3---|
  Q    E  E  Q    E   E   E     E  E  Q    E  E  Q       Q    E  E  Q    E   E   E
-----------------------------|------------------------|-----------------------------|
-------4--5--L---------------|------------------------|-------4--5--L---------------|
--4----4--5--L---------------|--------5----7--5--L----|--4----4--5--L---------------|
--4----4--5--L---------------|--------5----7--5--L----|--4----4--5--L---------------|
------------------5h--6h--7--|--0--0------------------|------------------5h--6h--7--|
-----------------------------|------------------------|-----------------------------|


     PM    PM    PM             PM    PM    PM             PM    PM    PM    PM
  E  E  E  E  E  E  E  E     E  E  E  E  E  E  E  E     E  E  E  E  E  E  E  E
--------------------------|--------------------------|--------------------------|
--------------------------|--------------------------|--------7-----7-----7--7--|
--------------------------|--------------------------|--------7-----7-----7--7--|
--7-----7-----7-----7--7--|--9-----9-----9-----9--9--|--7-----7-----7-----7--7--|
--5--5--5--5--5--5--5--5--|--7--7--7--7--7--7--7--7--|-----5-----5-----5--------|
--------------------------|--------------------------|--------------------------|


                                            >     PM        PM
  Q    Q    Q    E  E     Q    Q    Q    E  E     Q    Q    Q    E  E     Q    Q    Q    E E
-----------------------|-----------------------|-----------------------|-----------------------|
--------------------7--|--L--------------------|-----------------------|-----------------7--7--|
--------------------7--|--L--------------------|-----------------9--9--|--7----7----7----7--7--|
--9---------7----9--7--|--L----7----7----7--7--|-------9---------9--9--|--7----7----7----7--7--|
--7----9----5----7--5--|--L----5----5----5--5--|--7----7----7----7--7--|--5----5----5----5--5--|
-------7---------------|-----------------------|-----------------------|-----------------------|


                                                                     PM    PM    PM    PM
  |--3--|  |--3--|  |--3--|  |--3--|
  E  E  E  E  E  E  E  E  E  E  E  E     E   E  Q    Q    Q       E  E  E  E  E  E  E  E
--------------------------------------|------------------------|--------------------------|
--9--------------------------7--7--7--|------------------------|--------------------------|
--9--9--9--9--9--9--7--7--7--7--7--7--|--5------5----5----5----|--------------------------|
--9--9--9--9--9--9--7--7--7--7--7--7--|--5p--3--5----5----5----|--------------------------|
--7--7--7--7--7--7--5--5--5--5--5--5--|--3------3----3----3----|--5-----5-----5-----5-----|
--------------------------------------|------------------------|--3--3--3--3--3--3--3--3--|


     PM                                       >  >
                                           |--3--|
  E  E  E   E  Q    Q       Q    Q    Q    E  E  E     Q    Q    Q    Q       Q    Q    Q   Q
-------------------------|--------------------------|----------------------|----------------------|
-------------------------|--------------------------|----------------------|----------------------|
--7-----7------7----7----|-------5------------5--5--|--5----5----5----5----|----------------------|
--7-----7p--5--7----7----|--5----5----5----5--5--5--|--5----5----5----5----|------------5----5----|
--5--5--5------5----5----|--3----3----3----3--3--3--|--3----3----3----3----|--5----5----5----5----|
-------------------------|--------------------------|----------------------|--3----3----3----3----|


                      ^                                          ^
  Q    Q    Q    E  S S    W                   H.           E.   S     W
----------------------7-|--L----------------|--L------------L----9-|---L----------------|
-------7--------------9-|--L----------------|--L------------L---10-|---L----------------|
--7----7----7---------9-|--L----------------|--L------------L----9-|---L----------------|
--7----7----7----7----9-|--L----------------|--L------------L---11-|---L----------------|
--5----5----5----5----7-|--L----------------|--L------------L------|--------------------|
------------------------|-------------------|----------------------|--------------------|


                     ^                                          ^
   H.            E.  S    W                   H.           E.   S     W
---L-------------L---7-|--L----------------|--L------------L----9-|---L----------------|
---L-------------L---9-|--L----------------|--L------------L---10-|---L----------------|
---L-------------L---9-|--L----------------|--L------------L----9-|---L----------------|
---L-------------L---9-|--L----------------|--L------------L---11-|---L----------------|
---------------------7-|--L----------------|--L------------L------|--------------------|
-----------------------|-------------------|----------------------|--------------------|


                     v                                             v                     
  ^
   H.            E.  S     W                    H.            E.   S     H.            
  S
---L-------------L---7-|---L----------------|---L-------------L----9-|---L-------------L---12-|
---L-------------L---9-|---L----------------|---L-------------L---10-|---L-------------L---10-|
---L-------------L---9-|---L----------------|---L-------------L----9-|---L-------------L----9-|
---L-------------L---9-|---L----------------|---L-------------L---11-|---L-------------L---11-|
---------------------7-|--------------------|------------------------|------------------------|
-----------------------|--------------------|------------------------|------------------------|


                      ^
   H.            E.   S     W                    W
---L-------------L---12-|---L----------------|---L----------------|
---L-------------L---10-|---L----------------|---L----------------|
---L-------------L----9-|---L----------------|---L----------------|
---L-------------L---11-|---L----------------|---L----------------|
------------------------|--------------------|--------------------|
------------------------|--------------------|--------------------|


  |--3--|  |--3--|  |--3--|  |--3--|                    |--3--|
  E  E  E  E  E  E  E  E  E  E  E  E     Q    Q    Q    E  E  E     E  E  Q    E  E  Q
--------------------------------------|--------------------------|------------------------|
--------------------------------------|--------------------------|------------------------|
--9--9--9--9--9--9--9--9--9--9--9--9--|--9-----------------------|--------5----7--5--L----|
--9--9--9--9--9--9--9--9--9--9--9--9--|--9-----------------------|--------5----7--5--L----|
--7--7--7--7--7--7--7--7--7--7--7--7--|--7--------------5--6--7--|--0--0------------------|
--------------------------------------|--------------------------|------------------------|


                  |---3---|                                              |---3---|
  Q    E  E  Q    E   E   E     E  E  Q    E  E  Q       Q    E  E  Q    E   E   E
-----------------------------|------------------------|-----------------------------|
-------4--5--L---------------|------------------------|-------4--5--L---------------|
--4----4--5--L---------------|--------5----7--5--L----|--4----4--5--L---------------|
--4----4--5--L---------------|--------5----7--5--L----|--4----4--5--L---------------|
------------------5h--6h--7--|--0--0------------------|------------------5h--6h--7--|
-----------------------------|------------------------|-----------------------------|


     PM    PM PM PM PM       PM    PM PM PM PM          PM PM PM PM PM PM
  E  E  E  E  E  E  E  E     E  E  E  E  E  E  E  E     E  E  E  E  E  E  Q
--------------------------|--------------------------|--------------------------|
--7-----7-----------------|--------------------------|--------------------------|
--7-----7--------------7--|--------------------9--9--|--------------------------|
--7-----7--------------7--|--------------------9--9--|--------------------7S----|
--5--5--5--5--5--5--5--5--|--7--7--7--7--7--7--7--7--|--5--5--5--5--5--5--5S----|
--------------------------|--------------------------|--------------------------|


                                   PM PM          PM PM    PM    PM
  Q    Q    Q    E  E     H        E  E  E  E     E  E  E  E  E  E  E  E
-----------------------|-----------------------|--------------------------|
-----------------------|-----------------------|--------------------------|
-----------------------|-----------------------|--------------------9--9--|
--9---------7----9--7--|--L--------------7--7--|--------9-----9-----9--9--|
--7----9----5----7--5--|--L--------5--5--5--5--|--7--7--7--7--7--7--7--7--|
-------7---------------|-----------------------|--------------------------|


     PM    PM    PM                                                    PM    PM    PM
                             |--3--|  |--3--|  |--3--|  |--3--|
  E  E  E  E  E  E  E  E     E  E  E  E  E  E  E  E  E  E  E  E     E  E  E  E  E  E  Q
--------------------------|--------------------------------------|-------------------------|
--------------------------|--------------------------------------|-------------------------|
--------------------------|--------------------------------------|--5-----5-----5-----5----|
--7-----7-----7-----7--7--|--9--9--9--9--9--9--7--7--7--7--7--7--|--5-----5-----5-----5----|
--5--5--5--5--5--5--5--5--|--7--7--7--7--7--7--5--5--5--5--5--5--|--3--3--3--3--3--3--3----|
--------------------------|--------------------------------------|-------------------------|


     PM    PM    PM    PM       PM    PM    PM                  PM    PM    >
                                                                         |--3--|
  E  E  E  E  E  E  E  E     E  E  E  E  E  E  Q       E  E  E  E  E  E  E  E  E
--------------------------|-------------------------|-----------------------------|
--------------------------|-------------------------|-----------------------5-----|
--------------------------|--7-----7-----7-----7----|-----------------------5-----|
--------------------------|--7-----7-----7-----7----|--5--5--5-----5-----5--5--5--|
--5-----5-----5-----5-----|--5--5--5--5--5--5--5----|--3--3--3--3--3--3--3--3--3--|
--3--3--3--3--3--3--3--3--|-------------------------|-----------------------------|


     PM    PM    PM             PM    PM    PM    PM       PM    PM PM PM
  E  E  E  E  E  E  E  E     E  E  E  E  E  E  E  E     E  E  E  E  E  E  E  E
--------------------------|--------------------------|--------------------------|
--------------------------|--------------------------|--------------------------|
--5-----5-----5-----5-----|--------------------------|--------------------------|
--5-----5-----5-----5-----|--------------------------|--7-----7-----------7--7--|
--3--3--3--3--3--3--3--5--|--5-----5-----5-----5-----|--5--5--5--5--5--5--5--5--|
-----------------------3--|--3--3--3--3--3--3--3--3--|--------------------------|


                                         PM    PM    PM            PM    PM    PM    PM
        |--3--|  |--3--|  |--3--|
  E  E  E  E  E  E  E  E  E  E  E     E  E  E  E  E  E  Q       E  E  E  E  E  E  E  E
-----------------------------------|-------------------------|--------------------------|
--------5--5--5--5--5--5--5--5--5--|--5-----5-----5-----5----|--------------------------|
--------5--5--5--5--5--5--5--5--5--|--5-----5-----5-----5----|--------------------------|
--5--5--5--5--5--5--5--5--5--5--5--|--5-----5-----5-----5----|--------------------------|
--3--3--3--3--3--3--3--3--3--3--3--|--3--3--3--3--3--3--3----|--5-----5-----5-----5-----|
-----------------------------------|-------------------------|--3--3--3--3--3--3--3--3--|


     PM    PM    PM                  PM    >     >           PM    PM    PM
                                              |--3--|
  E  E  E  E  E  E  Q       E  E  E  E  E  E  E  E  E     E  E  E  E  E  E  Q
-------------------------|-----------------------------|-------------------------|
-------------------------|-----------------5-----5-----|--5-----5-----5-----5----|
--7-----7-----7-----7----|-----------------5-----5-----|--5-----5-----5-----5----|
--7-----7-----7-----7----|--5-----5-----5--5--5--5--5--|--5-----5-----5-----5----|
--5--5--5--5--5--5--5----|--3--3--3--3--3--3--3--3--3--|--3--3--3--3--3--3--3----|
-------------------------|-----------------------------|-------------------------|


     PM             PM    PM       PM    PM    PM
        |--3--|                                           |--3--|  |--3--|  |--3--|  |--3--|
  E  E  E  E  E  E  E  E  E     E  E  E  E  E  E  Q       E  E  E  E  E  E  E  E  E  E  E E
-----------------------------|-------------------------|--------------------------------------|
-----------------------------|-------------------------|--9--9--9--9--9--9--9--9--9-----------|
-----------------------------|--7-----7-----7-----7----|--9--9--9--9--9--9--9--9--9-----------|
-----------------------------|--7-----7-----7-----7----|--9--9--9--9--9--9--9--9--9-----------|
--5-----5--5--5--5-----5-----|--5--5--5--5--5--5--5----|--7--7--7--7--7--7--7--7--7--5--6--7--|
--3--3--3--3--3--3--3--3--3--|-------------------------|--------------------------------------|


                                        |---3---|
  Q      E  E  H           H.           E   E   E     Q      E  E  H
------------------------|--------------------------|------------------------|
------------5--L--------|--L-----------------------|------------5--L--------|
-------4g5--5--L--------|--L-----------------------|-------4g5--5--L--------|
-------4g5--5--L--------|--L-----------------------|-------4g5--5--L--------|
--0---------------------|---------------5h--6h--7--|--0---------------------|
------------------------|--------------------------|------------------------|


               |---3---|                                           |---3---|
  H.           E   E   E     Q      E  E  H           H.           E   E   E
--------------------------|------------------------|--------------------------|
--L-----------------------|------------5--L--------|--L-----------------------|
--L-----------------------|-------4g5--5--L--------|--L-----------------------|
--L-----------------------|-------4g5--5--L--------|--L-----------------------|
---------------5h--6h--7--|--0---------------------|---------------5h--6h--7--|
--------------------------|------------------------|--------------------------|


  Q      E  E  H           W                   W                   W
------------------------|-------------------|-------------------|-------------------|
------------5--L--------|--L----------------|--L----------------|--L----------------|
-------4g5--5--L--------|--L----------------|--L----------------|--L----------------|
-------4g5--5--L--------|--L----------------|--L----------------|--L----------------|
--0---------------------|-------------------|-------------------|-------------------|
------------------------|-------------------|-------------------|-------------------|


  W                                           W
-------------------------------------------|-------------------||
--L----------------------------------------|--L----------------||
--L----------------------------------------|--L----------------||
--L----------------------------------------|--L----------------||
-------------------------------------------|-------------------||
-------------------------------------------|-------------------||

Lead - I

     W                   W                   W                   W
E||-------------------|-------------------|-------------------|-------------------|
B||-------------------|-------------------|-------------------|-------------------|
G||-------------------|-------------------|-------------------|-------------------|
D||-------------------|-------------------|-------------------|-------------------|
A||-------------------|-------------------|-------------------|-------------------|
E||-------------------|-------------------|-------------------|-------------------|


  W                   W                   W                   W                   W
-------------------|-------------------|-------------------|-------------------|-------------------|
-------------------|-------------------|-------------------|-------------------|-------------------|
-------------------|-------------------|-------------------|-------------------|-------------------|
-------------------|-------------------|-------------------|-------------------|-------------------|
-------------------|-------------------|-------------------|-------------------|-------------------|
-------------------|-------------------|-------------------|-------------------|-------------------|


  W                   W                   W                   W                   W
-------------------|-------------------|-------------------|-------------------|-------------------|
-------------------|-------------------|-------------------|-------------------|-------------------|
-------------------|-------------------|-------------------|-------------------|-------------------|
-------------------|-------------------|-------------------|-------------------|-------------------|
-------------------|-------------------|-------------------|-------------------|-------------------|
-------------------|-------------------|-------------------|-------------------|-------------------|


  W                   W                   W                   W                   W
-------------------|-------------------|-------------------|-------------------|-------------------|
-------------------|-------------------|-------------------|-------------------|-------------------|
-------------------|-------------------|-------------------|-------------------|-------------------|
-------------------|-------------------|-------------------|-------------------|-------------------|
-------------------|-------------------|-------------------|-------------------|-------------------|
-------------------|-------------------|-------------------|-------------------|-------------------|


                                                                    |--3--|  |---3--|
  W                   W                   W                   E  E  E  E  E  E  E   E  Q
-------------------|-------------------|-------------------|--------------------------------|
-------------------|-------------------|-------------------|---------------------------8----|
-------------------|-------------------|-------------------|--------------------------------|
-------------------|-------------------|-------------------|-----------------5--7h--9-------|
-------------------|-------------------|-------------------|-----------5--7-----------------|
-------------------|-------------------|-------------------|-----3--7-----------------------|


  H.           Q        H          H            W
---------------------|-----------------------|-------------------|
---------------------|-----------------------|-------------------|
--7------------7b----|--Lpb--------L~--------|-------------------|
---------------------|-----------------------|-------------------|
---------------------|-----------------------|-------------------|
---------------------|-----------------------|-------------------|


        |--3--|  |--3--|   |--3--|
  E  E  E  E  E  E  E  E   E     Q         Q     Q     Q     Q        H.             Q
----------------------------------------|--------------------------|----------------------|
----------------------------------------|--------------------------|----------------------|
-----------------------7b--Lpbr--Lbr----|--L~----Lb----L~----7b----|--Lpb-----------------|
-----------------5--7-------------------|--------------------------|----------------------|
-----------5--7-------------------------|--------------------------|----------------------|
-----3--7-------------------------------|--------------------------|----------------------|


  W                   W                   W                   W                   W
-------------------|-------------------|-------------------|-------------------|-------------------|
-------------------|-------------------|-------------------|-------------------|-------------------|
-------------------|-------------------|-------------------|-------------------|-------------------|
-------------------|-------------------|-------------------|-------------------|-------------------|
-------------------|-------------------|-------------------|-------------------|-------------------|
-------------------|-------------------|-------------------|-------------------|-------------------|


  W                   W                   W                   W                   W
-------------------|-------------------|-------------------|-------------------|-------------------|
-------------------|-------------------|-------------------|-------------------|-------------------|
-------------------|-------------------|-------------------|-------------------|-------------------|
-------------------|-------------------|-------------------|-------------------|-------------------|
-------------------|-------------------|-------------------|-------------------|-------------------|
-------------------|-------------------|-------------------|-------------------|-------------------|


                                                                    |--3--|
  W                   W                   W                   E  E  E  E  E  Q    E    E
-------------------|-------------------|-------------------|------------------------------|
-------------------|-------------------|-------------------|------------------------------|
-------------------|-------------------|-------------------|------------------------------|
-------------------|-------------------|-------------------|-----------------5----7br--L--|
-------------------|-------------------|-------------------|-----------5--7---------------|
-------------------|-------------------|-------------------|-----3--7---------------------|


                                |---3--|  |---3--|  |---3--|
  H.            Q        E  E   E  E   E  E  E   E  E   E  E      Q      H            E  E
----------------------|------------------------------------8--|--10b-----Lpb~--------10------|
----------------------|-----------------------------8--10-----|--------------------------8\--|
--7~------------7~----|-------------------5--7s--9------------|------------------------------|
----------------------|------------5h--7----------------------|------------------------------|
----------------------|-----3S--7-----------------------------|------------------------------|
----------------------|---------------------------------------|------------------------------|


         |--3--|
  E  E   E  E  E  Q      E    E        H.           Q        W
------------------------------------|--------------------|---------------------|
-----8--10-----8--L~----10b--10pbr--|--------------------|--12-----------------|
------------9-----------------------|--------------------|--11b----------------|
------------------------------------|--7-----------------|---------------------|
------------------------------------|--------------------|---------------------|
------------------------------------|--------------------|---------------------|


   |-----3----|          |----3----|                        |---3---|  |---3---|
   E   E      E   Q      E      E  E   E   E      H         E  E    E  E    E  E
----------------------------------------------|-----------------------------------|
--12------------------------------------------|--------------------------------9--|
------11pbr---L---Lb----11pbr---L--9--11~--9--|--11~--------9----------9h--11-----|
----------------------------------------------|----------------9h--11-------------|
----------------------------------------------|-----------------------------------|
----------------------------------------------|-----------------------------------|


   |---3--|
   E  E   E   H          E  E      H.             E    E
-------------------------------|--14b------------16b--14b--|
--10--9------------------------|---------------------------|
---------11---L~---------L-----|---------------------------|
-------------------------------|---------------------------|
-------------------------------|---------------------------|
-------------------------------|---------------------------|


                                            |---3---|   |-3-|
   E      E   S   S   S  S  Q     Q         E   E   E   E   Q     H             W
---Lpbr---L--12h-14p-12----12----14b----|--14--12---------------------------|---------------------|
------------------------12--------------|----------14--12-------------------|---------------------|
----------------------------------------|------------------14-----L~--------|---L~----------------|
----------------------------------------|-----------------------------------|---------------------|
----------------------------------------|-----------------------------------|---------------------|
----------------------------------------|-----------------------------------|---------------------|


   PM PM PM  PM PM PM  PM PM PM  PM PM PM     PM PM PM  PM PM PM  PM PM PM  PM PM PM
   |--3--|   |--3--|   |--3--|   |--3--|      |--3--|   |--3--|   |--3--|   |--3--|
   E  E  E   E  E  E   E  E  E   E  E  E      E  E  E   E  E  E   E  E  E   E  E  E
------------------------------------------|------------------------------------------|
--12--9-----12--9-----12--9-----12--9-----|--12--9-----12--9-----12--9-----12--9-----|
---------9---------9---------9---------9--|---------9---------9---------9---------9--|
------------------------------------------|------------------------------------------|
------------------------------------------|------------------------------------------|
------------------------------------------|------------------------------------------|


   PM  PM  PM  PM  PM  PM  PM  PM  PM  PM  PM  PM     PM  PM  PM  PM  PM  PM  PM  PM  PM
   |---3---|   |---3---|   |---3---|   |---3---|      |---3---|   |---3---|   |---3---|
   E   E   E   E   E   E   E   E   E   E   E   E      E   E   E   E   E   E   E   E   E  
Q
--------------------------------------------------|--------------------------------------------|
--14--10------14--10------14--10------14--10------|--14--10------14--10------14--10------16----|
----------11----------11----------11----------11--|----------11----------11----------11--------|
--------------------------------------------------|--------------------------------------------|
--------------------------------------------------|--------------------------------------------|
--------------------------------------------------|--------------------------------------------|


   PM  PM  PM  PM  PM  PM  PM  PM  PM  PM  PM  PM     PM  PM  PM  PM  PM  PM  PM  PM  PM
   |---3---|   |---3---|   |---3---|   |---3---|      |---3---|   |---3---|   |---3---|
   E   E   E   E   E   E   E   E   E   E   E   E      E   E   E   E   E   E   E   E   E  
Q
--------------------------------------------------|--------------------------------------------|
--17--14------17--14------17--14------17--14------|--14--10------14--10------14--10------14----|
----------14----------14----------14----------14--|----------11----------11----------11--------|
--------------------------------------------------|--------------------------------------------|
--------------------------------------------------|--------------------------------------------|
--------------------------------------------------|--------------------------------------------|


   PM PM PM  PM PM PM  PM  PM  PM  PM  PM  PM
   |--3--|   |--3--|   |---3---|   |---3---|
   E  E  E   E  E  E   E   E   E   E   E   E      H          H           W
----------------------------------------------|-----------------------|-------------------|
--12--9-----12--9-----14--10------14--10------|-----------------------|-------------------|
---------9---------9----------11----------11--|--14b---------L--------|-------------------|
----------------------------------------------|-----------------------|-------------------|
----------------------------------------------|-----------------------|-------------------|
----------------------------------------------|-----------------------|-------------------|


  W                   W                   W                   W                   W
-------------------|-------------------|-------------------|-------------------|-------------------|
-------------------|-------------------|-------------------|-------------------|-------------------|
-------------------|-------------------|-------------------|-------------------|-------------------|
-------------------|-------------------|-------------------|-------------------|-------------------|
-------------------|-------------------|-------------------|-------------------|-------------------|
-------------------|-------------------|-------------------|-------------------|-------------------|


  W                   W                   W                   W                   W
-------------------|-------------------|-------------------|-------------------|-------------------|
-------------------|-------------------|-------------------|-------------------|-------------------|
-------------------|-------------------|-------------------|-------------------|-------------------|
-------------------|-------------------|-------------------|-------------------|-------------------|
-------------------|-------------------|-------------------|-------------------|-------------------|
-------------------|-------------------|-------------------|-------------------|-------------------|


                                                  |--3--|  |---3---|
  W                   W                   E  E    E  E  E  E    E  E  Q        Q    H    
    Q
-------------------|-------------------|------------------------------------|----------------------|
-------------------|-------------------|------------------------------8~----|--7----L~-------------|
-------------------|-------------------|---------------------------7--------|----------------------|
-------------------|-------------------|-------------------5--7g9-----------|----------------------|
-------------------|-------------------|-------------5--7-------------------|----------------------|
-------------------|-------------------|-----3--5g7-------------------------|----------------------|


            |---3---|   |----3---|   |----3---|
  E  E      E   E   E   E   E    E   E    E   E      H.             E   E
-------------------------------------------------|--------------------------|
---------------------------------------------13--|--15b-------------L-------|
------------------------------------12h--14------|---------------------14b--|
-----------------------10--12h--14---------------|--------------------------|
---------------10--12----------------------------|--------------------------|
-----8--10g12------------------------------------|--------------------------|


         |----3---|
   Q     E    E   E   Q      E    E      H          H
-------------------------------------|-----------------------|
-------------------------------------|-----------------------|
---L----12h--14------12~----14b--14--|---L~------------------|
-----------------14------------------|-----------------------|
-------------------------------------|-------------12--------|
-------------------------------------|-----------------------|


   |----3---|    |----3---|   |----3---|   |-----3----|
   E    E   E    E   E    E   E    E   E   E     E    E      H.            E   E
---------------------------------------------------------|---------------------------|
-------13-------13-------13-------13--13--15br---Lp--13--|--13-------------L---------|
--16b------16b------16b------16b-------------------------|--------------------14pbr--|
---------------------------------------------------------|---------------------------|
---------------------------------------------------------|---------------------------|
---------------------------------------------------------|---------------------------|


         |----3---|
   Q     E    E   E   Q     Q         Q     H          Q        Q     Q      Q      E    
E
----------------------------------|--------------------------|-------------------------------|
----------------------------------|--------------------------|-------20b----20b--------------|
---L----12h--14------12-----L~----|--------------------------|---------------------19br---L--|
-----------------14---------------|--------------------------|-------------------------------|
----------------------------------|--12-----L~---------Lb----|-------------------------------|
----------------------------------|--------------------------|-------------------------------|


                                       |----3---|
   H         Q      E   E        Q     E    E   E   Q      E    E         H         H
-----------------------------|----------------------------------------|-----------------------|
-----------------------------|----------------------------------------|-----------------------|
--17-------------------14br--|---L----12h--14------12~----14b--14pbr--|-----------------------|
------------10~-----L--------|-----------------14---------------------|-----------------------|
-----------------------------|----------------------------------------|--12---------L~--------|
-----------------------------|----------------------------------------|-----------------------|


                 |----3---|                                                  |----3----|
  H        Q     E    E   E      Q     H          Q         H         Q      E    E    E
-----------------------------|--------------------------|---------------------------------|
-----------------------------|--------------------------|---------------------------------|
-------------------------12--|---L-----L~---------Lb----|---L---------Lb------------------|
----------------12h--14------|--------------------------|-------------------12h--13h--14--|
-----------------------------|--------------------------|---------------------------------|
-----------------------------|--------------------------|---------------------------------|


                 |---3---|            |--3--|       |---3---|
   H.            E   E   E      Q     E  E  E  Q    E   E   E     Q    H         Q
----------------------------|----------------------------------|-----------------------|
----------------------------|----------------------------------|-----------------------|
----------------------------|------------9----------7h--8h--9--|-----------------------|
---L------------12--14--10--|---L----12-----9--L---------------|--7----L~--------Lb----|
----------------------------|----------------------------------|-----------------------|
----------------------------|----------------------------------|-----------------------|


  W                   Q     E    E    H             W                   W
-------------------|----------------------------|--------------------|-------------------|
-------------------|-------20b--20b---L~--------|---L----------------|-------------------|
-------------------|----------------------------|--------------------|-------------------|
--L----------------|----------------------------|--------------------|-------------------|
-------------------|----------------------------|--------------------|-------------------|
-------------------|----------------------------|--------------------|-------------------|


Lead - II

m.55                                       PM  PM  PM  PM  PM  PM  PM  PM  PM  PM  PM  PM
                                           |---3---|   |---3---|   |---3---|   |---3---|
  W                   W                    E   E   E   E   E   E   E   E   E   E   E   E
-------------------|-------------------|--12----------12----------12----------12----------|
-------------------|-------------------|------12----------12----------12----------12------|
-------------------|-------------------|----------13----------13----------13----------13--|
-------------------|-------------------|--------------------------------------------------|
-------------------|-------------------|--------------------------------------------------|
-------------------|-------------------|--------------------------------------------------|


   PM  PM  PM  PM  PM  PM  PM  PM  PM  PM  PM  PM
   |---3---|   |---3---|   |---3---|   |---3---|
   E   E   E   E   E   E   E   E   E   E   E   E
--12----------12----------12----------12----------|
------12----------12----------12----------12------|
----------13----------13----------13----------13--|
--------------------------------------------------|
--------------------------------------------------|
--------------------------------------------------|


   PM  PM  PM  PM  PM  PM  PM  PM  PM  PM  PM  PM
   |---3---|   |---3---|   |---3---|   |---3---|
   E   E   E   E   E   E   E   E   E   E   E   E
--14----------14----------14----------14----------|
------14----------14----------14----------14------|
----------14----------14----------14----------14--|
--------------------------------------------------|
--------------------------------------------------|
--------------------------------------------------|


   PM  PM  PM  PM  PM  PM  PM  PM  PM  PM  PM  PM
   |---3---|   |---3---|   |---3---|   |---3---|
   E   E   E   E   E   E   E   E   E   E   E   E
--14----------14----------14----------16----------|
------14----------14----------14----------14------|
----------14----------14----------14----------14--|
--------------------------------------------------|
--------------------------------------------------|
--------------------------------------------------|


   PM  PM  PM  PM  PM  PM  PM  PM  PM  PM  PM  PM
   |---3---|   |---3---|   |---3---|   |---3---|
   E   E   E   E   E   E   E   E   E   E   E   E
--17----------17----------17----------17----------|
------17----------17----------17----------17------|
----------16----------16----------16----------16--|
--------------------------------------------------|
--------------------------------------------------|
--------------------------------------------------|


   PM  PM  PM  PM  PM  PM  PM  PM  PM  PM  PM  PM
   |---3---|   |---3---|   |---3---|   |---3---|
   E   E   E   E   E   E   E   E   E   E   E   E
--14----------14----------14----------14----------|
------14----------14----------14----------14------|
----------14----------14----------14----------14--|
--------------------------------------------------|
--------------------------------------------------|
--------------------------------------------------|


   PM  PM  PM  PM  PM  PM  PM  PM  PM  PM  PM  PM
   |---3---|   |---3---|   |---3---|   |---3---|
   E   E   E   E   E   E   E   E   E   E   E   E      H          H              W
--12----------12----------14----------14----------|--------------------------|-------------------|
------12----------12----------14----------14------|--15b---------Lpbr--------|-------------------|
----------13----------13----------14----------14--|--------------------------|-------------------|
--------------------------------------------------|--------------------------|-------------------|
--------------------------------------------------|--------------------------|-------------------|
--------------------------------------------------|--------------------------|-------------------|

Duration Legend
---------------
W - whole
H - half
Q - quarter
E - 8th
S - 16th
T - 32nd
X - 64th
. - note dotted
|-n-|  - n-tuplets


Tablature Legend
----------------
L - tied note
x - dead note
g - grace note
(n) - ghost note
> - accentuded note
NH - natural harmonic
AH - artificial harmonic
TH - tapped harmonic
SH - semi harmonic
PH - pitch harmonic
h - hammer on
p - pull off
b - bend
br - bendRelease
pb - preBend
pbr - preBendRelease
brb - bendReleaseBend
\n/ - tremolo bar dip
\n - tremolo bar dive
-/n - tremolo bar Release up
/n\ - tremolo bar inverted dip
/n - tremolo bar return
-\n - tremolo bar Release down
S - shift slide
s - legato slide
/ -  slide into from below or out of upwards
\ -  slide into from above or out of downwards
~ - vibrato
W - wide vibrato
tr - trill
TP - tremolo picking
T - tapping
S - slap
P - pop
< - fade in
^ - brush up
v - brush down

This a 100% Certified Texas Tab™. Don't settle for less. Only a song by a Texas band 
is tabbed by a Texas Shredder in The Great Republic of Texas can be labeled a Genuine Texas 
SRV approved.

DON'T MESS WITH TEXAS

            
            
Suggest correction
Creating personal tab
Creating personal tab
You can edit any tab online and save it as your Personal.

You can edit, replace or remove any tab part or add personal notes – all changes will be seen only by you.

Personal tabs can be accessed anytime from any device, even offline.
Learn more »
Give kudos to tab author, rate the tab!
1 2 3 4 5
comments
print report bad tab
2 comments total.
0 reply
TexasFury 9,040 Nov 13, 2008 06:48 AM

This a 100% Certified Texas Tab™. Don't settle for less. Only a song by a Texas band that is tabbed by a Texas Shredder in The Great Republic of Texas can be labeled a Genuine Texas Tab™. SRV approved.

DON'T MESS WITH TEXAS

0 reply
Strat4jazz 162 Nov 21, 2016 04:41 PM

Hey Fury, I don't wanna burst your bubble, but the Author of this song (Bubba Keith) can help you with the guitar parts written by Rusty Burns & Kim Davis (Point Blank. The tab you have here is a good start but far from heaping self acclaimed praise you're putting on it.

guest
You may want to rate the tab now too:
select rating
Wanna post a correction for this tab? Suggest correction