Oops, an error
Loading. Please wait.

Ride The Wind bass

version 1
version 1

Whole song

Interactive

by Poison
4,977 views 1 this week
4 commentsread comments
1 2 3 4 5
3 more votes to show rating
add to favorites
×
Save as Personal and add changes to this tab that will be seen only by you. Learn more ›
×
You can save this tab as Personal to edit and correct it or add notes. All changes will be seen only by you. Learn more »
launch autoscroll
font size
0
reset
guitar tuner
edit
Autoscroll
slow
fast
+/-
esc
set tempo
stop
Band:Poison
Song:Ride The Wind
Album:Flesh & Blood
Tabbed by:PUNKfromNORWAY

First of all I will say that the number of the notes isn't 100% correct, but listen to 
song then you now how many times you have to hit the notes.
And this song kicks ass!!

Guitar intro/ no bass

Come in at 0.21 verse 1
Gb|---------------------------------------------------|
Db|---------------------------------------------------|
Ab|17/-5-5-5-5-5-5-5-5-5-5-5-5-5-5-5-5-5-5-5-5-5-5-5--|etc
Eb|---------------------------------------------------|

  this fill at O.32
Gb|-------------------------|
Db|-------------------------|
Ab|2--------3---------------|
Eb|-------------------------|

Pre-Chorus
Gb|--------------------------------------------|
Db|--------------------------------------------|
Ab|--------------------------------------------|   x2
Eb|7--7-7-7-7-5--5-5-5-5-3--3-3-3-3-3-3-3-3----|

Chorus
Gb|------------------------------------------------------------------------|
Db|------------------------------------------------------------------------|
Ab|-5-5-5-5-5-5-5-5-5-5-5-5-5-5-5--2----0----------------------------------|x2
Eb|-----------------------------------------3-3-3-3-3-3-3-3-3-3-3-3-3-3-3--|

Verse 2
Gb|--------------------------------------------------|
Db|--------------------------------------------------|
Ab|5-5-5-5-5-5-5-5-5-5-5-5-5-5-5-5-5-5-5-5-5-5-5-5---|etc
Eb|--------------------------------------------------|

  this fill again
Gb|-------------------------|
Db|-------------------------| Verse & fill x2
Ab|2--------3---------------|
Eb|-------------------------|


Pre-Chorus
Gb|--------------------------------------------|
Db|--------------------------------------------|
Ab|--------------------------------------------|   x2
Eb|7--7-7-7-7-5--5-5-5-5-3--3-3-3-3-3-3-3-3----|


Chorus
Gb|------------------------------------------------------------------------|
Db|------------------------------------------------------------------------|
Ab|-5-5-5-5-5-5-5-5-5-5-5-5-5-5-5--2----0----------------------------------|x2
Eb|-----------------------------------------3-3-3-3-3-3-3-3-3-3-3-3-3-3-3--|

Guitar solo(same as Pre-Chorus)
Gb|--------------------------------------------|
Db|--------------------------------------------|
Ab|--------------------------------------------|   x4
Eb|7--7-7-7-7-5--5-5-5-5-3--3-3-3-3-3-3-3-3----|

Bridge
Gb|??
Db|??
Ab|?? sorry! :( can't figure out the bridge, the notes are Gb-7-6-5-4,
Eb|?? so just play something that sounds right.


Chorus
Gb|------------------------------------------------------------------------|
Db|------------------------------------------------------------------------|
Ab|-5-5-5-5-5-5-5-5-5-5-5-5-5-5-5--2----0----------------------------------|x4
Eb|-----------------------------------------3-3-3-3-3-3-3-3-3-3-3-3-3-3-3--|

End
Gb|------------------------------|
Db|------------------------------|
Ab|----------------------------5-|
Eb|-3-3-3-3-3-3-3-3-3-3--3-3-3---|

feel free to use it to whatever you like
Keep on Rockin' \m/

            
            
Suggest correction
Creating personal tab
Creating personal tab
You can edit any tab online and save it as your Personal.

You can edit, replace or remove any tab part or add personal notes – all changes will be seen only by you.

Personal tabs can be accessed anytime from any device, even offline.
Learn more »
Give kudos to tab author, rate the tab!
1 2 3 4 5
comments
print report bad tab
4 comments total. Showing first comments.
0 reply
PUNKfromNORWAY 113 May 19, 2008 11:16 AM

15 fret instead of 13 :p

0 reply
PUNKfromNORWAY 113 May 19, 2008 11:19 AM

and play Db-5-5-5-5-5-5 on the end of the chorus instead of Eb-3-3-3-3-3

+1 reply
barbar122 10 Nov 21, 2009 05:03 AM

G|----19----------------------------------------------------
D|----------------19---------19---------17/19-17------------
A|-17-----17-16-------16-15------15-14----------------------
E|----------------------------------------------------------
repeat 2x then to the lower octave

G----7------------------------------------------------------
D------------7-------7---------5/7-5------------------------
A-5----5-4------4-3------3-2--------------------------------
E-----------------------------------------------------------
repeat 2x

guest
You may want to rate the tab now too:
select rating
Wanna post a correction for this tab? Suggest correction