Oops, an error
Loading. Please wait.

Sexual Thing bass

by Poison
533 views 1 this week
2 commentsread comments
1 2 3 4 5
2 more votes to show rating
add to favorites
×
Save as Personal and add changes to this tab that will be seen only by you. Learn more ›
×
You can save this tab as Personal to edit and correct it or add notes. All changes will be seen only by you. Learn more »
launch autoscroll
font size
0
reset
guitar tuner
edit
Autoscroll
slow
fast
+/-
esc
set tempo
stop
-------------------------------------------------------------------------------
			     Sexual Thing - Poison
-------------------------------------------------------------------------------

Tabbed By : Devan2678
e-mail: devaneull_93@hotmail.com

this is my first tab. tabbed it by ear so if you see any errors please send me a message

Tuning: Half Step Down (Eb, Ab, Db, Gb)
Tuning: My Version (D, A, D, G)

Intro/Chorus (My version)

Play this 4X for intro only

G|---4h6-6--4h6-6-6-6---4h6-6--4h6-6-6-6---4h6-6--4h6-6-6-6------------------|
D|---------------------------------------------------------------------------|
A|---------------------------------------------------------------------------|
D|---------------------------------------------------------------------------|

Intro (Original Version)

Play this 2X (come in at 0:15)

Gb|---------------------------------------------------------------------------|
Db|---------------------------------------------------------------------------|
Ab|---------------------------------------------------------------------------|
Eb|---0-0---------0-0-------0-0--------0-0------------------------------------|


Verse (My Version)

Do this until you get to the chorus

G|---------------------------------------------------------------------------|
D|---------------------------------------------------------------------------|
A|---2h4-4--2h4-4-4-4---2h4-4--2h4-4-4-4---2h4-4--2h4-4-4-4------------------|
D|---------------------------------------------------------------------------|


Verse (Original Version)

Your on your own here if you can figure it out message me, the rest of the song is my 
i think it sounds a little bit like the original version
G|---------------------------------------------------------------------------|
D|---------------------------------------------------------------------------|
A|---------------------------------------------------------------------------|
E|---------------------------------------------------------------------------|

Chorus

G|---------------------------------------------------------------------------|
D|---------------------------------------------------------------------------|
A|---00000000---22222222---44444444---22222222---00000000----2-2-2-----------|
D|---------------------------------------------------------------------------|

G|---------------------------------------------------------------------------|
D|---------------------------------------------------------------------------|
A|---00000000---22222222---44444444---22222222---00000000----2~~~0~~~--------|
D|---------------------------------------------------------------------------|


Bridge

G|---------------------------------------------------------------------------|
D|---------------------------------------------------------------------------|
A|---4p2~~------2p0~~--------0h2~~---------2h4~~-----------------------------|
D|---------------------------------------------------------------------------|

i have yet to figure out the outro


| /  slide up
| \  slide down
| h  hammer-on
| p  pull-off
| ~  vibrato
| +  harmonic
| x  Mute note
===============================================================================

            
            
Suggest correction
Creating personal tab
Creating personal tab
You can edit any tab online and save it as your Personal.

You can edit, replace or remove any tab part or add personal notes – all changes will be seen only by you.

Personal tabs can be accessed anytime from any device, even offline.
Learn more »
Give kudos to tab author, rate the tab!
1 2 3 4 5
comments
print report bad tab
2 comments total.
0 reply
barbar122 10 Oct 23, 2009 03:05 PM

he is just slapping the open low D. then it just a ride on the same note. the little run is kinda like this
------------------------------------------------------------------------------------------------------------------------------------------5-55-3-3----------------------------------------------------------------------6-6-5-3-0--------------------------------------------------- repeat as needed
the other is liks this
---------------------------------------------------------------------------------------------------------------------------------------------------------------------------------------------------------------5h7-5h7-0h2-0h2-4-5 repeat. the last part of the song the last three are 5h7

0 reply
barbar122 10 Oct 23, 2009 03:07 PM

ok apperently i need line lessons. lol ill email it

guest
Wanna post a correction for this tab? Suggest correction