Oops, an error
Loading. Please wait.

Election Day intro tab

1,558 views 1 this week
2 commentsread comments
1 2 3 4 5
1 last vote to show rating
add to favorites
×
Save as Personal and add changes to this tab that will be seen only by you. Learn more ›
×
You can save this tab as Personal to edit and correct it or add notes. All changes will be seen only by you. Learn more »
launch autoscroll
font size
0
reset
how to read this tab
guitar tuner
edit
Autoscroll
slow
fast
+/-
esc
set tempo
stop
Author
-------------------------------------------------------------------------------
                             ELECTION DAY - Polar Bear Club
-------------------------------------------------------------------------------
Tabbed by: Brad5992
Email: br.ad@live.com.au
Band Wesbite: www.myspace.com/polarbearclub

Tuning: Standard

e|--------------------------------------------------------------------------------|
B|-4-----------4-----------4-----------4--------2-----------2---------------------|
G|----0--2--0-----0--2--0-----0--2--0-----0--2-----0--2--0-----0--2--0--2/5555555-|  x2
D|--------------------------------------------------------------------------------|
A|--------------------------------------------------------------------------------|
E|--------------------------------------------------------------------------------|

e|----------|
B|----------|
G|2/5555555-|
D|----------|
A|----------|
E|----------|

            
            
Suggest correction
Creating personal tab
Creating personal tab
You can edit any tab online and save it as your Personal.

You can edit, replace or remove any tab part or add personal notes – all changes will be seen only by you.

Personal tabs can be accessed anytime from any device, even offline.
Learn more »
Give kudos to tab author, rate the tab!
1 2 3 4 5
comments
print report bad tab
2 comments total.
+1 reply
mikexdude 149 Aug 21, 2010 08:32 PM

On the right track, I think. I might tab this later.

Correct me if I'm wrong.

|--------------------------------------------------------
|--------------------------------------------------------
|---------------------------2~p0----2p0---------0--0--0--
|-9p0-----9p0---9p0----9p0------2p0-----2p0-2/5--5--5--5-
|-----7p0----7p0---7p0----7------------------------------
|--------------------------------------------------------

on the last one, end on a G octave.

the chords underneath it, I BELIEVE, are:

|--------------
|--------------
|-4-0-2------5-----
|-2-2-0-5-3--5-2------
|-3-3-2-5-3--3-2------
|-------3-1----0--

0 reply
brad5992 1,016 Dec 02, 2010 12:17 AM

yeah what i tabbed probably isnt right. i think youve got the right idea.

guest
You may want to rate the tab now too:
select rating
Wanna post a correction for this tab? Suggest correction