Oops, an error
Loading. Please wait.

El Ultimo Beso bass

by Polo
359 views 6 this week
no commentswrite comment
1 2 3 4 5
3 more votes to show rating
add to favorites
×
Save as Personal and add changes to this tab that will be seen only by you. Learn more ›
×
You can save this tab as Personal to edit and correct it or add notes. All changes will be seen only by you. Learn more »
launch autoscroll
font size
0
reset
guitar tuner
edit
Autoscroll
slow
fast
+/-
esc
set tempo
stop
Bueno esta es mi primera trascripción
                                             *aquí se repite
E|--------7-9------11----11---------------7---------7-9-------11----11
A|-7-----7-----9-----12---------------9------*7------7------9-----12
D|----9-----------------------11---9-------------9-------------------etc
G|--------------------------------------------------

cuando para es en la nota mi(7 de la cuerda LA)
y cuando empieza hacen rápido

E|----------
A|-7-9------
D|----7-9---
G|----------

y vuelven a empezar
                                             *aquí repite
E|--------7-9------11----11---------------7---------7-9-------11----11
A|-7-----7-----9-----12---------------9------*7------7------9-----12
D|----9-----------------------11---9-------------9-------------------etc
G|--------------------------------------------------

espero que les suene bien!

            
            
Suggest correction
Creating personal tab
Creating personal tab
You can edit any tab online and save it as your Personal.

You can edit, replace or remove any tab part or add personal notes – all changes will be seen only by you.

Personal tabs can be accessed anytime from any device, even offline.
Learn more »
Give kudos to tab author, rate the tab!
1 2 3 4 5
comments
print report bad tab
guest
Wanna post a correction for this tab? Suggest correction