Oops, an error
Loading. Please wait.

Juliana chords

77 views 1 this week
no commentswrite comment
1 2 3 4 5
3 more votes to show rating
add to favorites
×
Save as Personal and add changes to this tab that will be seen only by you. Learn more ›
×
You can save this tab as Personal to edit and correct it or add notes. All changes will be seen only by you. Learn more »
launch autoscroll
font size
0
reset
transpose
0
reset
simplify chords
display chords
guitar tuner
edit
Autoscroll
slow
fast
+/-
esc
set tempo
stop
Strumming
There is no strumming pattern for this song yet. and get +5 IQ
Esta Canción es muy buena
Simplemente tienes que fijarte donde hay palm muting
para que te suene bien

Intro:

|-----7---------5---------4-----------------|
|-5-5---5---5-5---5---5-5---5---5-5-7-5-4-5-|
|-------------------------------------------|
|-------------------------------------------|X 4
|-------------------------------------------|
|-------------------------------------------|

Intro parte 2:

|-7-7-7-7-7--5-5-5-5-5--7-7-7-7-7--x-x-5-x-x-5-|
|-5-5-5-5-5--5-5-5-5-5--5-5-5-5-5--x-x-5-x-x-5-|
|----------------------------------------------|
|----------------------------------------------|X4
|----------------------------------------------|
|----------------------------------------------|

E5
Entregué mucho
B5            A5          C#5-B5
Y al final poco se recibió
E5                    B5
Tu marioneta favorita
       A5        C#5-B5
Parecia que era yo

E5                        B5
Me manejaste a tu manera
            A5             C#5-B5
Lo que menos te importo fui yo
E5                    B5
Nunca fuiste a mis conciertos
         A5                C#5
No se en que estaba pensando yo

PRECORO:

|--------------------------------------------------|
|--------------------------------------------------|
|-9-9-9-9--9~-------------------------6-6-6-6--6-4-|
|-9-9-9-9--9~-9-9-9-9--9~-7-7-7-7--7~-6-6-6-6--6-4-|
|-7-7-7-7--7~-9-9-9-9--9~-7-7-7-7--7~-4-4-4-4--4-2-|
|-------------7-7-7-7--7~-5-5-5-5--5~--------------|
  P.M....     P.M....     P.M....     P.M....

CORO:
E5                B5
Tu disculpa a mi mama,
A5                C#5-B5
No sabias que inventar
E5              B5
Espero seas feliz
A5               C#5
Ya que no estas junto a mi


|-----------------------------|
|-----------------------------|
|-----------------------------| x20
|------6-7-6----------6-7-6---|
|-7-7-9------7-7~-7-9-------7-|
|-----------------------------|

Otra vez se repiten los acordes del principio

Aunque a veces pienso en ti
Hoy sigo siendo muy feliz
Pues mis momentos de alegría
No quisiste compartir
Y cuando estés con alguien
Espero sepas como vivir
Y si te hace lo que me hiciste
Ya sabrás lo que yo sentí

Otra vez va el PRECORO
Y luego: esto
CORO:
E5                B5
Tu disculpa a mi mama,
A5                C#5-B5
No sabias que inventar
E5              B5
Espero seas feliz
A5
Ya que no estas.....

(Aquí solo dejas sonar los acordes)
         B5~ C#5~ F#5~ B5~ B5~ C#5~ F#5~ B5
junto a mi

|-----------------------------|
|-----------------------------|
|-----------------------------| x20
|------6-7-6----------6-7-6---|
|-7-7-9------7-7~-7-9-------7-|
|-----------------------------|

Bueno eso es todo la verdad asi suena muy bien...
Un saludo a Carol y a Natha Que les gusta mucho Pop corn

            
            
Suggest correction
Creating personal tab
Creating personal tab
You can edit any tab online and save it as your Personal.

You can edit, replace or remove any tab part or add personal notes – all changes will be seen only by you.

Personal tabs can be accessed anytime from any device, even offline.
Learn more »
Give kudos to tab author, rate the tab!
1 2 3 4 5
comments
print report bad tab
guest
Wanna post a correction for this tab? Suggest correction