Oops, an error
Loading. Please wait.

Miro, Espero, Pienso tab

47 views 1 this week
no commentswrite comment
1 2 3 4 5
3 more votes to show rating
add to favorites
×
Save as Personal and add changes to this tab that will be seen only by you. Learn more ›
×
You can save this tab as Personal to edit and correct it or add notes. All changes will be seen only by you. Learn more »
launch autoscroll
font size
0
reset
how to read this tab
guitar tuner
edit
Autoscroll
slow
fast
+/-
esc
set tempo
stop
e|----------------------------------|
B|----------------------------------|
G|----------------------------------|
D|----------------------------------|
A|-55555555555-5-6-7-55555555555-5--|
E|----------------------------------|
   |---pm----|       |---pm----|

RIFF 1:
e|-----------------------------------------------------------|
B|--------------------------------------------------x2-------|
G|-----------------------------------------------------------|
D|-4-00-5-00-7-00-5-0-4-0-2-0---4-00-5-00-4-00-5-00-2-0-2-0--|
A|-----------------------------------------------------------|
E|-----------------------------------------------------------|

RIFF 2:
e|-----------------------------------------------|
B|-----------------------------------------------|
G|-77777XX777------------99999XX999--------------|
D|-77777XX777-77777XX777-99999XX999-77777XX777---|
A|-55555XX555-77777XX777-77777XX777-77777XX777---|
E|------------55555XX555------------55555XX555---|

RIFF 3:
e|----------------------|---------------------------|
B|----------------------|---------------------------|
G|-777-666-777-999-776--|-999-888-999-11-11-11-998--|
D|----------------------|---------------------------|
A|-----------------X2---|-----------------------X2--|
E|----------------------|---------------------------|

RIFF 2
                                     A|-7----------|
D5      A5            E5             E|-5-5-6-8----|
Otra vez vuelvo a caer y no se porque
D5        A5
la verdad no logro entender
E5
las cosas no me salen bien

?Miro espero pienso?
e|-------------------------------------|
B|-------------------------------------|
G|----------------99999999-------------|
D|-7--------------XXXXXXXX-------------|
A|-7--------------77777777-------------|
E|-5-56-56-56-565---------56-56-56-565-|

e|-----------------------------------------------|
B|-----------------------------------------------|
G|-777-999-11-------------7779997774-------------|
D|-XXX-XXX-XX-------------XXXXXXXXXX-------------|
A|-555-777-9--------------5557775556-------------|
E|-----------56-56-56-565-----------56-56-56-565-|

Riff 1
Riff 2
                                     A|-7----------|
D5      A5            E5             E|-5-5-6-8----|
Se bien que yo solo te amo y te quiero
D5         A5
pero vuelvo a caer
E5
dejándote un sueño mas real

llegarse a perder Pueda llegarse a perder
e|-----------------|
B|-----------------|
G|-----------------|
D|-5---5---5---5---|
A|---5---5---5---5-|
E|-----------------|
 |---armónicos---|

e|---------------X2--|----------X2----------|---------X2----------|
B|-------------------|----------------------|---------------------|
G|-999-999-999-999/8-|-999-999/11-999-999/8-|-888888-9/1111111111-|
D|-XXX-XXX-XXX-XXX/X-|-XXX-XXX/X--XXX-XXX/X-|-xxxxxx-x/X-X-X-X-X--|
A|-777-777-777-777/6-|-777-777/9--777-777/6-|-666666-7/9-9-9-9-9--|
E|-------------------|----------------------|---------------------|

                  |Hay mucho por recorrer????????|Pienso...
e|----------------|------------------------------|--------------|
B|---------X2-----|--------------------------X6--|--------------|
G|----------------|-119-88888888--6-8-9-88888888-|-7-9-11-13-15-|
D|----------------|-xxx-xxxxxxxx--x-x-x-xxxxxxxx-|-X-X-X--X--X--|
A|-9-7-6--4-6-7-6-|-9-7-66666666--4-6-7-66666666-|-5-7-9--11-13-|
E|----------------|------------------------------|--------------|

e|-----------------------------------|----------------------|
B|-----------------------------------|-------X3-------------|
G|-7-------9------11-------13--------|--------------XX7-XX7-|
D|-x-------x------x--------x---------|--------------XX7-XX7-|
A|-5-5656--7-7878-9-910910-11-9-7-5--|-45-45--45-45-XX5-XX5-|
E|-----------------------------------|----------------------|

e|-------------------------|
B|-------------------------|
G|-7777777777-99999--5-7-9-|
D|-7777777777-99999--5-7-9-|
A|-5555555555-77777--3-5-7-|
E|-------------------------|

ACORDES:
e|---X----X-----X-----|
B|---X----X-----X-----|
G|---7----X-----9-----|
D|---7----7-----9-----|
A|---5----7-----7-----|
E|---X----5-----X-----|
    D5    A5   E5

            
            
Suggest correction
Creating personal tab
Creating personal tab
You can edit any tab online and save it as your Personal.

You can edit, replace or remove any tab part or add personal notes – all changes will be seen only by you.

Personal tabs can be accessed anytime from any device, even offline.
Learn more »
Give kudos to tab author, rate the tab!
1 2 3 4 5
comments
print report bad tab
guest
Wanna post a correction for this tab? Suggest correction