Oops, an error
Loading. Please wait.

Que Puedo Decir bass

27 views 1 this week
no commentswrite comment
1 2 3 4 5
2 more votes to show rating
add to favorites
×
Save as Personal and add changes to this tab that will be seen only by you. Learn more ›
×
You can save this tab as Personal to edit and correct it or add notes. All changes will be seen only by you. Learn more »
launch autoscroll
font size
0
reset
guitar tuner
edit
Autoscroll
slow
fast
+/-
esc
set tempo
stop
INTRO I: (Arpegios guitarra limpia)
G|---------------------------------|
D|-0-0~----------------------------| X2
A|--------0-0~----2-2~-------0-----|
E|-----------------------3---------|

INTRO II: (Cuando entra la bateria)
G|-----------------------------------|
D|-----------------------------------| X4
A|-55-5-55-----------------------00--|
E|----------55-5-55--77-7-77--33-----|

INTRO III: (Cuando entra la guitarra distorcionada)
G|------------------------------------------------------------|
D|------------------------------------------------------X3----|
A|-555-55-555-5/7---------------------------------------------|
E|-----------------555-55-555-5/6--777-77-777-7/2-33335-33335-|

VERSO: Quedo pensando en ti Después de oírte decir...
G|-------------------------------------|
D|-------------------------------------|X2
A|-55555555----------22222222----------|
E|----------55555555----------33333333-|

CORO: Yo entiendo tu razón Tal vez siempre...
G|-------|-------------------------------------|
D|-------|-------------------------------------|X2
A|-------|-55555555----------22222222----------|
E|-55555-|----------55555555----------33333333-|

INTRO III:

VERSO: Quedo pensando en ti No se ni que sentir...

CORO: Yo entiendo tu razón Tal vez siempre...

INTRO II:

INTERMEDIO:
G|------------------------------------------------|
D|------------------------------------------------|X2
A|-55555555-77777777-99999999-10101010-99999-77---|
E|------------------------------------------------|

CORO: Yo entiendo tu razón Tal vez siempre...
G|-XXX-XX-XXX-XX--XXX-XX-XXX-XX-|
D|-XXX-XX-XXX-XX--XXX-XX-XXX-XX-|
A|-XXX-XX-XXX-XX--XXX-XX-XXX-XX-|
E|-XXX-XX-XXX-XX--XXX-XX-XXX-XX-|

Hoy te pido perdón Por darte una ilusión...
G|-------------------------------------|
D|-------------------------------------|
A|-55-55-55----------22-22-22----------|
E|----------55-55-55----------33-33-33-|

G|------------------------------------|
D|------------------------------------|
A|-5~~----555555------5~~----555555---|x2
E|------------------------------------|

Ohhhhhhhhhhhhhh Que puedo decir
G|-------------------------------------|
D|-------------------------------------|X2
A|-55555555----------------------------|
E|----------22222222-33333333-55555555-|

Que fue muy lindo conocerte Y no te puedo olvidar
G|---------------------------------|
D|-0-0~----------------------------|
A|--------0-0~----2-2~-------0-----|
E|-----------------------3---------|

CORRECCIONES, DUDAS O BUSCAN CANCIONES DE ESTE Y OTROS GRUPOS
DE LA ESCENA LOCAL ESCRIBANME AL CORREO ROCKANDRES182@

            
            
Suggest correction
Creating personal tab
Creating personal tab
You can edit any tab online and save it as your Personal.

You can edit, replace or remove any tab part or add personal notes – all changes will be seen only by you.

Personal tabs can be accessed anytime from any device, even offline.
Learn more »
Give kudos to tab author, rate the tab!
1 2 3 4 5
comments
print report bad tab
guest
Wanna post a correction for this tab? Suggest correction