Oops, an error
Loading. Please wait.
We have an official 100 In A 55 tab made by UG professional guitarists. Check out the tab »
×
6,834 views 1 this week
no commentswrite comment
1 2 3 4 5
2 more votes to show rating
add to favorites
×
Save as Personal and add changes to this tab that will be seen only by you. Learn more ›
×
You can save this tab as Personal to edit and correct it or add notes. All changes will be seen only by you. Learn more »
launch autoscroll
font size
0
reset
how to read this tab
guitar tuner
edit
Autoscroll
slow
fast
+/-
esc
set tempo
stop
----------------------------------------------------------------------------
                                100 In A 55
                                 Pop Evil
----------------------------------------------------------------------------

To start off, I’m not a great acoustic guitar tab master so don’t except the intro with 
acoustic guitar to be spot on, but I did try my best. Beautiful song, and it is very 
Enjoy!

Username: dkm817 (same on X box live)
Email: guitardrums@rockfan.com

Guitar 1 Rhythmic (D A D G B E)
Guitar 2 Lead 1   (D A D G B E)
Guitar 3 Lead 2   (D A D G B E)
Guitar 4 Acoustic (D A D G B E)

Intro

Guitar 4
E-----------------------------------------------------------------|
B-13~~~~~~~~--13~~~~~~~~--13~~~~~~~--12---12~~~--10---12~~~--12---|
G-12~~~~~~~~--12~~~~~~~~--12~~~~~~~--12---12~~~--12---12~~~--12---|
D-10~~~~~~~~--10~~~~~~~~--10~~~~~~~--10---10~~~--10---10~~~--10---|
A-10~~~~~~~~--10~~~~~~~~--10~~~~~~~--10---10~~~--10---10~~~--10---|
D------------------------------------10---10~~~--10---10~~~--10---|

Guitar 4
E-----------------------------------------------------------------|
B-10~~~~~~~~--10~~~~~~~~--10~~~~~~~--6----5~~~~--6----5~~~~--5----|
G-9~~~~~~~~~--9~~~~~~~~~--9~~~~~~~~--5----5~~~~--5----5~~~~--5----|
D-7~~~~~~~~~--7~~~~~~~~~--7~~~~~~~~--3----3~~~~--3----3~~~~--3----|
A-7~~~~~~~~~--7~~~~~~~~~--7~~~~~~~~--3----3~~~~--3----3~~~~--3----|
D-----------------------------------------------------------------|

Guitar 4
E-----------------------------------------------------------------|
B-13~~~~~~~~--13~~~~~~~~--13~~~~~~~--12---12~~~--10---12~~~--12---|
G-12~~~~~~~~--12~~~~~~~~--12~~~~~~~--12---12~~~--12---12~~~--12---|
D-10~~~~~~~~--10~~~~~~~~--10~~~~~~~--10---10~~~--10---10~~~--10---|
A-10~~~~~~~~--10~~~~~~~~--10~~~~~~~--10---10~~~--10---10~~~--10---|
D------------------------------------10---10~~~--10---10~~~--10---|

Guitar 4
E-----------------------------------------------------------------|
B-10~~~~~~~~--10~~~~~~~~--10~~~~~~~--6----5~~~~--6----5~~~~--5----|
G-9~~~~~~~~~--9~~~~~~~~~--9~~~~~~~~--5----5~~~~--5----5~~~~--5----|
D-7~~~~~~~~~--7~~~~~~~~~--7~~~~~~~~--3----3~~~~--3----3~~~~--3----|
A-7~~~~~~~~~--7~~~~~~~~~--7~~~~~~~~--3----3~~~~--3----3~~~~--3----|
D-----------------------------------------------------------------|

Guitar 4
E-----------------------------------------------------------------|
B-13~~~~~~~~--13~~~~~~~~--13~~~~~~~--12---12~~~--10---12~~~--12---|
G-12~~~~~~~~--12~~~~~~~~--12~~~~~~~--12---12~~~--12---12~~~--12---|
D-10~~~~~~~~--10~~~~~~~~--10~~~~~~~--10---10~~~--10---10~~~--10---|
A-10~~~~~~~~--10~~~~~~~~--10~~~~~~~--10---10~~~--10---10~~~--10---|
D------------------------------------10---10~~~--10---10~~~--10---|

Guitar 4
E-----------------------------------------------------------------|
B-10~~~~~~~~--10~~~~~~~~--10~~~~~~~--6----5~~~~--6----5~~~~--5----|
G-9~~~~~~~~~--9~~~~~~~~~--9~~~~~~~~--5----5~~~~--5----5~~~~--5----|
D-7~~~~~~~~~--7~~~~~~~~~--7~~~~~~~~--3----3~~~~--3----3~~~~--3----|
A-7~~~~~~~~~--7~~~~~~~~~--7~~~~~~~~--3----3~~~~--3----3~~~~--3----|
D-----------------------------------------------------------------|

Guitar 3 (Fade In)
E-----------------------------------------------------------------|
B-----------------------------------------------------------------|
G-17~~~~~~~~~~~~~~~~~~~~~~~~~~~~~~~~~~~~~~~~~~~~~~~~~~~~~~~~~~~~~~
D-----------------------------------------------------------------|
A-----------------------------------------------------------------|
D-----------------------------------------------------------------|


Guitar 4
E-----------------------------------------------------------------|
B-13~~~~~~~~--13~~~~~~~~--13~~~~~~~--12---12~~~--10---12~~~--12---|
G-12~~~~~~~~--12~~~~~~~~--12~~~~~~~--12---12~~~--12---12~~~--12---|
D-10~~~~~~~~--10~~~~~~~~--10~~~~~~~--10---10~~~--10---10~~~--10---|
A-10~~~~~~~~--10~~~~~~~~--10~~~~~~~--10---10~~~--10---10~~~--10---|
D------------------------------------10---10~~~--10---10~~~--10---|

Guitar 3
E-----------------------------------------------------------------|
B-----------------------------------------------------------------|
G-~~~~~~~~~~~~~~~~~~~~~~~~~~~~~~~~~~~~~~~~~~~~~~~~~~~~~~~~~~~~~~~~
D-----------------------------------------------------------------|
A-----------------------------------------------------------------|
D-----------------------------------------------------------------|

Guitar 4
E-----------------------------------------------------------------|
B-10~~~~~~~~--10~~~~~~~~--10~~~~~~~--6----5~~~~--6----5~~~~--5----|
G-9~~~~~~~~~--9~~~~~~~~~--9~~~~~~~~--5----5~~~~--5----5~~~~--5----|
D-7~~~~~~~~~--7~~~~~~~~~--7~~~~~~~~--3----3~~~~--3----3~~~~--3----|
A-7~~~~~~~~~--7~~~~~~~~~--7~~~~~~~~--3----3~~~~--3----3~~~~--3----|
D-----------------------------------------------------------------|

Guitar 3
E------------------------------------------------------------------|
B-17~~~~~~~~~~~~~~~~~~~~~~~~~~~--18~~~~~~~~~~~~~~~~~~~~~~~~~~~~~~~-|
G------------------------------------------------------------------|
D------------------------------------------------------------------|
A------------------------------------------------------------------|
D------------------------------------------------------------------|

Guitar 4
E-----------------------------------------------------------------|
B-13~~~~~~~~--13~~~~~~~~--13~~~~~~~--12---12~~~--10---12~~~--12---|
G-12~~~~~~~~--12~~~~~~~~--12~~~~~~~--12---12~~~--12---12~~~--12---|
D-10~~~~~~~~--10~~~~~~~~--10~~~~~~~--10---10~~~--10---10~~~--10---|
A-10~~~~~~~~--10~~~~~~~~--10~~~~~~~--10---10~~~--10---10~~~--10---|
D------------------------------------10---10~~~--10---10~~~--10---|

Guitar 3
E------------------------------------------------------------------|
B-20~~~~~~~~~~~~~~~~~~~~~~~~~~~--15~~~~~~~~~~~~~~~~~~~~~~~~~~~~~~~-|
G------------------------------------------------------------------|
D------------------------------------------------------------------|
A------------------------------------------------------------------|
D------------------------------------------------------------------|

Guitar 4
E-----------------------------------------------------------------|
B-10~~~~~~~~--10~~~~~~~~--10~~~~~~~--6----5~~~~--6----5~~~~--5----|
G-9~~~~~~~~~--9~~~~~~~~~--9~~~~~~~~--5----5~~~~--5----5~~~~--5----|
D-7~~~~~~~~~--7~~~~~~~~~--7~~~~~~~~--3----3~~~~--3----3~~~~--3----|
A-7~~~~~~~~~--7~~~~~~~~~--7~~~~~~~~--3----3~~~~--3----3~~~~--3----|
D-----------------------------------------------------------------|

Guitar 3
E------------------------------------------------------------------|
B-17~~~~~~~~~~~~~~~~~~~~~~~~~~~--18~~~~~~~~~~~~~~~~~~~~~~~~~~~~~~~-|
G------------------------------------------------------------------|
D------------------------------------------------------------------|
A------------------------------------------------------------------|
D------------------------------------------------------------------|

Guitar 4
E-----------------------------------------------------------------|
B-13~~~~~~~~--13~~~~~~~~--13~~~~~~~--12---12~~~--10---12~~~--12---|
G-12~~~~~~~~--12~~~~~~~~--12~~~~~~~--12---12~~~--12---12~~~--12---|
D-10~~~~~~~~--10~~~~~~~~--10~~~~~~~--10---10~~~--10---10~~~--10---|
A-10~~~~~~~~--10~~~~~~~~--10~~~~~~~--10---10~~~--10---10~~~--10---|
D------------------------------------10---10~~~--10---10~~~--10---|

Guitar 1 (Fade In)
E------------------------------------------------------------------|
B------------------------------------------------------------------|
G------------------------------------------------------------------|
D--------------------------------3~~~~~~~~~~~~~~~~~~~~~~~~~~~~~~~~-|
A--------------------------------3~~~~~~~~~~~~~~~~~~~~~~~~~~~~~~~~-|
D--------------------------------3~~~~~~~~~~~~~~~~~~~~~~~~~~~~~~~~-|

Guitar 3
E------------------------------------------------------------------|
B-17~~~~~~~~~~~~~~~~~~~~~~~~~~~--15~~~~~~~~~~~~~~~~~~~~~~~~~~~~~~~-|
G------------------------------------------------------------------|
D------------------------------------------------------------------|
A------------------------------------------------------------------|
D------------------------------------------------------------------|

Guitar 4
E-----------------------------------------------------------------|
B-10~~~~~~~~--10~~~~~~~~--10~~~~~~~--6----5~~~~--6----5~~~~--5----|
G-9~~~~~~~~~--9~~~~~~~~~--9~~~~~~~~--5----5~~~~--5----5~~~~--5----|
D-7~~~~~~~~~--7~~~~~~~~~--7~~~~~~~~--3----3~~~~--3----3~~~~--3----|
A-7~~~~~~~~~--7~~~~~~~~~--7~~~~~~~~--3----3~~~~--3----3~~~~--3----|
D-----------------------------------------------------------------|

Chorus

Guitar 1
E----------------------------------------------------------------|
B-5~~~~~---------------------------------------------------------|
G-5~~~~~--5---5---5---5------------------------------------------|
D-5~~~~~--5---5---5---5---5~~~~~~~~--5---5~~~~~--5---5---5---5---|
A-3~~~~~--3---3---3---3---5~~~~~~~~--5---5~~~~~--5---5---5---5---|
D-------------------------5~~~~~~~~--5---5~~~~~--5---5---5---5---|

Guitar 2 & 3
E----------------------------------------------------------------|
B----------------------------------------------------------------|
G---------9---10--9~~~~----------9---10--9-------9---10--9~~~~---|
D-10~~~~-----------------10~~~~--------------10------------------|
A----------------------------------------------------------------|
D----------------------------------------------------------------|


Guitar 1
E----------------------------------------------------------------|
B----------------------------------------------------------------|
G----------------------------------------------------------------|
D-7~~~~~--7---7---x---x---3~~~~~~~~--3---3~~~~~--3---3-----------|
A-7~~~~~--7---7---x---x---3~~~~~~~~--3---3~~~~~--3---3-----------|
D-7~~~~~--7---7---x---x---3~~~~~~~~--3---3~~~~~--3---3---2---0---|
pm                                                       .   .

Guitar 2 & 3
E----------------------------------------------------------------|
B----------------------------------------------------------------|
G---------9---10--9~~~~----------9---10--9-------9---10--9---10--|
D-10~~~~-----------------10~~~~--------------10------------------|
A----------------------------------------------------------------|
D----------------------------------------------------------------|

Guitar 1
E----------------------------------------------------------------|
B----------------------------------------------------------------|
G-5~~~~~--5---5--------------------------------------------------|
D-5~~~~~--5---5---x---x---5~~~~~~~~--5---5~~~~~--5---5-----------|
A-3~~~~~--3---3---x---x---5~~~~~~~~--5---5~~~~~--5---5-----------|
D-----------------x---x---5~~~~~~~~--5---5~~~~~--5---5---7---5---|
pm                                                       .   .

Guitar 2 & 3
E----------------------------------------------------------------|
B----------------------------------------------------------------|
G---------9---10--9~~~~----------9---10--9-------9---10--9~~~~---|
D-10~~~~-----------------10~~~~--------------10------------------|
A----------------------------------------------------------------|
D----------------------------------------------------------------|

Guitar 1
E----------------------------------------------------------------|
B----------------------------------------------------------------|
G--------------------------------------------3---2---------------|
D-7~~~~~--7---7---x---x---3~~~~~~~~--3~~~~~----------3-----------|
A-7~~~~~--7---7---x---x---3~~~~~~~~--3~~~~~--------------3---1---|
D-7~~~~~--7---7---x---x---3~~~~~~~~--3~~~~~----------------------|

Guitar 2 & 3
E----------------------------------------------------------------|
B----------------------------------------------------------------|
G-12~~~~~~~~~~~~--10~~~~~~~~~~~~--9~~~~~~~~~~~~~--7\-------------|
D----------------------------------------------------------------|
A----------------------------------------------------------------|
D----------------------------------------------------------------|

Guitar 1
E----------------------------------------------------------------|
B-5~~~~~---------------------------------------------------------|
G-5~~~~~--5---5---5---5------------------------------------------|
D-5~~~~~--5---5---5---5---5~~~~~~~~--5---5~~~~~--5---5---5---5---|
A-3~~~~~--3---3---3---3---5~~~~~~~~--5---5~~~~~--5---5---5---5---|
D-------------------------5~~~~~~~~--5---5~~~~~--5---5---5---5---|

Guitar 2 & 3
E----------------------------------------------------------------|
B----------------------------------------------------------------|
G---------9---10--9~~~~----------9---10--9-------9---10--9~~~~---|
D-10~~~~-----------------10~~~~--------------10------------------|
A----------------------------------------------------------------|
D----------------------------------------------------------------|


Guitar 1
E----------------------------------------------------------------|
B----------------------------------------------------------------|
G----------------------------------------------------------------|
D-7~~~~~--7---7---x---x---3~~~~~~~~--3---3~~~~~--3---3-----------|
A-7~~~~~--7---7---x---x---3~~~~~~~~--3---3~~~~~--3---3-----------|
D-7~~~~~--7---7---x---x---3~~~~~~~~--3---3~~~~~--3---3---2---0---|
pm                                                       .   .

Guitar 2 & 3
E----------------------------------------------------------------|
B----------------------------------------------------------------|
G---------9---10--9~~~~----------9---10--9-------9---10--9---10--|
D-10~~~~-----------------10~~~~--------------10------------------|
A----------------------------------------------------------------|
D----------------------------------------------------------------|

Guitar 1
E----------------------------------------------------------------|
B----------------------------------------------------------------|
G-5~~~~~--5---5--------------------------------------------------|
D-5~~~~~--5---5---x---x---5~~~~~~~~--5---5~~~~~--5---5-----------|
A-3~~~~~--3---3---x---x---5~~~~~~~~--5---5~~~~~--5---5-----------|
D-----------------x---x---5~~~~~~~~--5---5~~~~~--5---5---7---5---|
pm                                                       .   .

Guitar 2 & 3
E----------------------------------------------------------------|
B----------------------------------------------------------------|
G---------9---10--9~~~~----------9---10--9-------9---10--9~~~~---|
D-10~~~~-----------------10~~~~--------------10------------------|
A----------------------------------------------------------------|
D----------------------------------------------------------------|

Guitar 1
E----------------------------------------------------------------|
B----------------------------------------------------------------|
G----------------------------------------------------------------|
D-7~~~~~--7---7---x---x---3~~~~~~~~--3---3~~~~~--3---3---3---3---|
A-7~~~~~--7---7---x---x---3~~~~~~~~--3---3~~~~~--3---3---3---3---|
D-7~~~~~--7---7---x---x---3~~~~~~~~--3---3~~~~~--3---3---3---3---|

Guitar 2 & 3
E----------------------------------------------------------------|
B----------------------------------------------------------------|
G-12~~~~~~~~~~~~--10~~~~~~~~~~~~--9~~~~~~~~~~~~~--7\-------------|
D----------------------------------------------------------------|
A----------------------------------------------------------------|
D----------------------------------------------------------------|

Bridge 1

Guitar 1 & 3


E------------------------------------------------------------------|
B------------------------------------------------------------------|
G-5~~~~~~~~~~~~~~~~~~~~~~~~~~~~~~~~~~~~~~~~~~~~~~~~~~~~~~~~~~~~~~~~
D-5~~~~~~~~~~~~~~~~~~~~~~~~~~~~~~~~~~~~~~~~~~~~~~~~~~~~~~~~~~~~~~~~
A-3~~~~~~~~~~~~~~~~~~~~~~~~~~~~~~~~~~~~~~~~~~~~~~~~~~~~~~~~~~~~~~~~
D------------------------------------------------------------------

Guitar 2
E-----------------------------16------------------------------16--|
B-----------------------------------------------------------------|
G-17~~~~~~~~~~~~~~~~~~~~~~~~------16~~~~~~~~~~~~~~~~~~~~~~~~------|
D-----------------------------------------------------------------|
A-----------------------------------------------------------------|
D-----------------------------------------------------------------|

Guitar 4
E-----------------------------------------------------------------|
B-13~~~~~~~~--13~~~~~~~~--13~~~~~~~--12---12~~~--10---12~~~--12---|
G-12~~~~~~~~--12~~~~~~~~--12~~~~~~~--12---12~~~--12---12~~~--12---|
D-10~~~~~~~~--10~~~~~~~~--10~~~~~~~--10---10~~~--10---10~~~--10---|
A-10~~~~~~~~--10~~~~~~~~--10~~~~~~~--10---10~~~--10---10~~~--10---|
D------------------------------------10---10~~~--10---10~~~--10---|

Guitar 2
E-----------------------------16--14~~~~~~~~~~~~~~~--13br~~~------|
B-------------------------------------------------------------15--|
G-14~~~~~~~~~~~~~~~~~~~~~~~~--------------------------------------|
D-----------------------------------------------------------------|
A-----------------------------------------------------------------|
D-----------------------------------------------------------------|

Guitar 4
E-----------------------------------------------------------------|
B-10~~~~~~~~--10~~~~~~~~--10~~~~~~~--6----5~~~~--6----5~~~~--5----|
G-9~~~~~~~~~--9~~~~~~~~~--9~~~~~~~~--5----5~~~~--5----5~~~~--5----|
D-7~~~~~~~~~--7~~~~~~~~~--7~~~~~~~~--3----3~~~~--3----3~~~~--3----|
A-7~~~~~~~~~--7~~~~~~~~~--7~~~~~~~~--3----3~~~~--3----3~~~~--3----|
D-----------------------------------------------------------------|

Guitar 1 & 3

E------------------------------------------------------------------|
B------------------------------------------------------------------|
G-5~~~~~~~~~~~~~~~~~~~~~~~~~~~~~~~~~~~~~~~~~~~~~~~~~~~~~~~~~~~~~~~~
D-5~~~~~~~~~~~~~~~~~~~~~~~~~~~~~~~~~~~~~~~~~~~~~~~~~~~~~~~~~~~~~~~~
A-3~~~~~~~~~~~~~~~~~~~~~~~~~~~~~~~~~~~~~~~~~~~~~~~~~~~~~~~~~~~~~~~~
D------------------------------------------------------------------

Guitar 2
E-----------------------------16------------------------------16--|
B-----------------------------------------------------------------|
G-17~~~~~~~~~~~~~~~~~~~~~~~~------16~~~~~~~~~~~~~~~~~~~~~~~~------|
D-----------------------------------------------------------------|
A-----------------------------------------------------------------|
D-----------------------------------------------------------------|

Guitar 4
E-----------------------------------------------------------------|
B-13~~~~~~~~--13~~~~~~~~--13~~~~~~~--12---12~~~--10---12~~~--12---|
G-12~~~~~~~~--12~~~~~~~~--12~~~~~~~--12---12~~~--12---12~~~--12---|
D-10~~~~~~~~--10~~~~~~~~--10~~~~~~~--10---10~~~--10---10~~~--10---|
A-10~~~~~~~~--10~~~~~~~~--10~~~~~~~--10---10~~~--10---10~~~--10---|
D------------------------------------10---10~~~--10---10~~~--10---|

Guitar 2
E-----------------------------16--14~~~~~~~~~~~~~~~~~~~--16b~~~~--|
B-----------------------------------------------------------------|
G-14~~~~~~~~~~~~~~~~~~~~~~~~--------------------------------------|
D-----------------------------------------------------------------|
A-----------------------------------------------------------------|
D-----------------------------------------------------------------|

Guitar 4
E-----------------------------------------------------------------|
B-10~~~~~~~~--10~~~~~~~~--10~~~~~~~--6----5~~~~--6----5~~~~--5----|
G-9~~~~~~~~~--9~~~~~~~~~--9~~~~~~~~--5----5~~~~--5----5~~~~--5----|
D-7~~~~~~~~~--7~~~~~~~~~--7~~~~~~~~--3----3~~~~--3----3~~~~--3----|
A-7~~~~~~~~~--7~~~~~~~~~--7~~~~~~~~--3----3~~~~--3----3~~~~--3----|
D-----------------------------------------------------------------|

Verse

Guitar 1
E-----------------------------------------------------------------|
B-----------------------------------------------------------------|
G-5~~~~~~~~~--5~~~~~~~~~--5~~~~~~~~-------------------------------|
D-5~~~~~~~~~--5~~~~~~~~~--5~~~~~~~~--x----5~~~~--5----5~~~~--5----|
A-3~~~~~~~~~--3~~~~~~~~~--3~~~~~~~~--x----5~~~~--5----5~~~~--5----|
D------------------------------------x----5~~~~--5----5~~~~--5----|

Guitar 2
E-----------------------------------------------------------------|
B-----------------------------------------------------------------|
G-----------------------------------------------------------------|
D--------------------------------------------------9h--10p-9------|
A-------------------------------------------------------------10--|
D-----------------------------------------------------------------|

Guitar 3
E-----------------------------------------------------------------|
B-----------------------------------------------------------------|
G-----------------------------------------------------------------|
D-----------------------------------------------------------------|
A-----------------------------------------------------------------|
D-----------------------------------------------------------------|

Guitar 4
E-----------------------------------------------------------------|
B-13~~~~~~~~--13~~~~~~~~--13~~~~~~~--12---12~~~--10---12~~~--12---|
G-12~~~~~~~~--12~~~~~~~~--12~~~~~~~--12---12~~~--12---12~~~--12---|
D-10~~~~~~~~--10~~~~~~~~--10~~~~~~~--10---10~~~--10---10~~~--10---|
A-10~~~~~~~~--10~~~~~~~~--10~~~~~~~--10---10~~~--10---10~~~--10---|
D------------------------------------10---10~~~--10---10~~~--10---|

Guitar 1
E-----------------------------------------------------------------|
B-----------------------------------------------------------------|
G-----------------------------------------------------------------|
D-7~~~~~~~~~--7~~~~~~~~~--7~~~~~~~~--x----3~~~~--3----3~~~~--3----|
A-7~~~~~~~~~--7~~~~~~~~~--7~~~~~~~~--x----3~~~~--3----3~~~~--3----|
D-7~~~~~~~~~--7~~~~~~~~~--7~~~~~~~~--x----3~~~~--3----3~~~~--3----|

Guitar 2
E-----------------------------------------------------------------|
B-----------------------------------------------------------------|
G-----------------------------------------------------------------|
D-----------------------------------------------------------------|
A-----------------------------------------------------------------|
D-----------------------------------------------------------------|

Guitar 3
E-----------------------------------------------------------------|
B-----------------------------------------------------------------|
G-----------------------------------------------------------------|
D--------------------------------------------------7h--8p--9------|
A-------------------------------------------------------------10--|
D-----------------------------------------------------------------|

Guitar 4
E-----------------------------------------------------------------|
B-10~~~~~~~~--10~~~~~~~~--10~~~~~~~--6----5~~~~--6----5~~~~--5----|
G-9~~~~~~~~~--9~~~~~~~~~--9~~~~~~~~--5----5~~~~--5----5~~~~--5----|
D-7~~~~~~~~~--7~~~~~~~~~--7~~~~~~~~--3----3~~~~--3----3~~~~--3----|
A-7~~~~~~~~~--7~~~~~~~~~--7~~~~~~~~--3----3~~~~--3----3~~~~--3----|
D-----------------------------------------------------------------|

Guitar 1
E-----------------------------------------------------------------|
B-----------------------------------------------------------------|
G-5~~~~~~~~~--5~~~~~~~~~--5~~~~~~~~-------------------------------|
D-5~~~~~~~~~--5~~~~~~~~~--5~~~~~~~~--x----5~~~~--5----5~~~~--5----|
A-3~~~~~~~~~--3~~~~~~~~~--3~~~~~~~~--x----5~~~~--5----5~~~~--5----|
D------------------------------------x----5~~~~--5----5~~~~--5----|

Guitar 2
E-----------------------------------------------------------------|
B-----------------------------------------------------------------|
G-----------------------------------------------------------------|
D--------------------------------------------------9h--10p-9------|
A-------------------------------------------------------------10--|
D-----------------------------------------------------------------|

Guitar 3
E-----------------------------------------------------------------|
B-----------------------------------------------------------------|
G-----------------------------------------------------------------|
D-----------------------------------------------------------------|
A-----------------------------------------------------------------|
D-----------------------------------------------------------------|

Guitar 4
E-----------------------------------------------------------------|
B-13~~~~~~~~--13~~~~~~~~--13~~~~~~~--12---12~~~--10---12~~~--12---|
G-12~~~~~~~~--12~~~~~~~~--12~~~~~~~--12---12~~~--12---12~~~--12---|
D-10~~~~~~~~--10~~~~~~~~--10~~~~~~~--10---10~~~--10---10~~~--10---|
A-10~~~~~~~~--10~~~~~~~~--10~~~~~~~--10---10~~~--10---10~~~--10---|
D------------------------------------10---10~~~--10---10~~~--10---|

Guitar 1
E-----------------------------------------------------------------|
B-----------------------------------------------------------------|
G-----------------------------------------------------------------|
D-7~~~~~~~~~--7~~~~~~~~~--7~~~~~~~~--x----3~~~~--3----3~~~~--3----|
A-7~~~~~~~~~--7~~~~~~~~~--7~~~~~~~~--x----3~~~~--3----3~~~~--3----|
D-7~~~~~~~~~--7~~~~~~~~~--7~~~~~~~~--x----3~~~~--3----3~~~~--3----|

Guitar 2
E-----------------------------------------------------------------|
B-----------------------------------------------------------------|
G-----------------------------------------------------------------|
D-----------------------------------------------------------------|
A-----------------------------------------------------------------|
D-----------------------------------------------------------------|

Guitar 3
E-----------------------------------------------------------------|
B-----------------------------------------------------------------|
G-----------------------------------------------------------------|
D--------------------------------------------------7h--8p--9------|
A-------------------------------------------------------------10--|
D-----------------------------------------------------------------|

Guitar 4
E-----------------------------------------------------------------|
B-10~~~~~~~~--10~~~~~~~~--10~~~~~~~--6----5~~~~--6----5~~~~--5----|
G-9~~~~~~~~~--9~~~~~~~~~--9~~~~~~~~--5----5~~~~--5----5~~~~--5----|
D-7~~~~~~~~~--7~~~~~~~~~--7~~~~~~~~--3----3~~~~--3----3~~~~--3----|
A-7~~~~~~~~~--7~~~~~~~~~--7~~~~~~~~--3----3~~~~--3----3~~~~--3----|
D-----------------------------------------------------------------|

Guitar 1
E-----------------------------------------------------------------|
B-----------------------------------------------------------------|
G-5~~~~~~~~~--5~~~~~~~~~--5~~~~~~~~-------------------------------|
D-5~~~~~~~~~--5~~~~~~~~~--5~~~~~~~~--x----5~~~~--5----5~~~~--5----|
A-3~~~~~~~~~--3~~~~~~~~~--3~~~~~~~~--x----5~~~~--5----5~~~~--5----|
D------------------------------------x----5~~~~--5----5~~~~--5----|

Guitar 2
E-----------------------------------------------------------------|
B-----------------------------------------------------------------|
G-----------------------------------------------------------------|
D--------------------------------------------------9h--10p-9------|
A-------------------------------------------------------------10--|
D-----------------------------------------------------------------|

Guitar 3
E-----------------------------------------------------------------|
B-------------------------------------------------------------15--|
G-17~~~~~~~~~~~~~~~~~~~~~~~~~~~~~~~~~~~~~~~~~~~~~~~~~~~~~~~~------|
D-----------------------------------------------------------------|
A-----------------------------------------------------------------|
D-----------------------------------------------------------------|

Guitar 4
E-----------------------------------------------------------------|
B-13~~~~~~~~--13~~~~~~~~--13~~~~~~~--12---12~~~--10---12~~~--12---|
G-12~~~~~~~~--12~~~~~~~~--12~~~~~~~--12---12~~~--12---12~~~--12---|
D-10~~~~~~~~--10~~~~~~~~--10~~~~~~~--10---10~~~--10---10~~~--10---|
A-10~~~~~~~~--10~~~~~~~~--10~~~~~~~--10---10~~~--10---10~~~--10---|
D------------------------------------10---10~~~--10---10~~~--10---|

Guitar 1
E-----------------------------------------------------------------|
B-----------------------------------------------------------------|
G-----------------------------------------------------------------|
D-7~~~~~~~~~--7~~~~~~~~~--7~~~~~~~~--x----3~~~~--3----3~~~~--3----|
A-7~~~~~~~~~--7~~~~~~~~~--7~~~~~~~~--x----3~~~~--3----3~~~~--3----|
D-7~~~~~~~~~--7~~~~~~~~~--7~~~~~~~~--x----3~~~~--3----3~~~~--3----|

Guitar 2
E-----------------------------------------------------------------|
B-----------------------------------------------------------------|
G-----------------------------------------------------------------|
D--------------------------------------------------7h--8p--9------|
A-------------------------------------------------------------10--|
D-----------------------------------------------------------------|

Guitar 3
E-----------------------------------------------------------------|
B-17~~~~~~~~~~~~~~~~~~~~~~~~~~~--18~~~~~~~~~~~~~--20~~~~~~~~~~~~--|
G-----------------------------------------------------------------|
D-----------------------------------------------------------------|
A-----------------------------------------------------------------|
D-----------------------------------------------------------------|

Guitar 4
E-----------------------------------------------------------------|
B-10~~~~~~~~--10~~~~~~~~--10~~~~~~~--6----5~~~~--6----5~~~~--5----|
G-9~~~~~~~~~--9~~~~~~~~~--9~~~~~~~~--5----5~~~~--5----5~~~~--5----|
D-7~~~~~~~~~--7~~~~~~~~~--7~~~~~~~~--3----3~~~~--3----3~~~~--3----|
A-7~~~~~~~~~--7~~~~~~~~~--7~~~~~~~~--3----3~~~~--3----3~~~~--3----|
D-----------------------------------------------------------------|

Guitar 1
E-----------------------------------------------------------------|
B-----------------------------------------------------------------|
G-5~~~~~~~~~--5~~~~~~~~~--5~~~~~~~~-------------------------------|
D-5~~~~~~~~~--5~~~~~~~~~--5~~~~~~~~--x----5~~~~--5----5~~~~--5----|
A-3~~~~~~~~~--3~~~~~~~~~--3~~~~~~~~--x----5~~~~--5----5~~~~--5----|
D------------------------------------x----5~~~~--5----5~~~~--5----|

Guitar 2
E-----------------------------------------------------------------|
B-----------------------------------------------------------------|
G-----------------------------------------------------------------|
D--------------------------------------------------9h--10p-9------|
A-------------------------------------------------------------10--|
D-----------------------------------------------------------------|

Guitar 3
E-----------------------------------------------------------------|
B---------------------------------------------------------17--18--|
G-17~~~~~~~~~~~~~~~~~~~~~~~~~~~~~~~~~~~~~~~~~~~~~~~~~~~~----------|
D-----------------------------------------------------------------|
A-----------------------------------------------------------------|
D-----------------------------------------------------------------|

Guitar 4
E-----------------------------------------------------------------|
B-13~~~~~~~~--13~~~~~~~~--13~~~~~~~--12---12~~~--10---12~~~--12---|
G-12~~~~~~~~--12~~~~~~~~--12~~~~~~~--12---12~~~--12---12~~~--12---|
D-10~~~~~~~~--10~~~~~~~~--10~~~~~~~--10---10~~~--10---10~~~--10---|
A-10~~~~~~~~--10~~~~~~~~--10~~~~~~~--10---10~~~--10---10~~~--10---|
D------------------------------------10---10~~~--10---10~~~--10---|

Break Off

Guitar 1 2 & 3
E-----------------------------------------------------------------|
B-----------------------------------------------------------------|
G-----------------------------------------------------------------|
D-7------------------------------3--------------7\----------------|
A-7------------------------------3--------------7\----------------|
D-7------------------------------3--------------7\----------------|

Guitar 4
E-----------------------------------------------------------------|
B-10-----------------------------6--------------------------------|
G-9------------------------------5--------------------------------|
D-7------------------------------3--------------------------------|
A-7------------------------------3--------------------------------|
D-----------------------------------------------------------------|

Chorus

Guitar 1
E----------------------------------------------------------------|
B-5~~~~~---------------------------------------------------------|
G-5~~~~~--5---5---5---5------------------------------------------|
D-5~~~~~--5---5---5---5---5~~~~~~~~--5---5~~~~~--5---5---5---5---|
A-3~~~~~--3---3---3---3---5~~~~~~~~--5---5~~~~~--5---5---5---5---|
D-------------------------5~~~~~~~~--5---5~~~~~--5---5---5---5---|

Guitar 2 & 3
E----------------------------------------------------------------|
B----------------------------------------------------------------|
G---------9---10--9~~~~----------9---10--9-------9---10--9~~~~---|
D-10~~~~-----------------10~~~~--------------10------------------|
A----------------------------------------------------------------|
D----------------------------------------------------------------|


Guitar 1
E----------------------------------------------------------------|
B----------------------------------------------------------------|
G----------------------------------------------------------------|
D-7~~~~~--7---7---x---x---3~~~~~~~~--3---3~~~~~--3---3-----------|
A-7~~~~~--7---7---x---x---3~~~~~~~~--3---3~~~~~--3---3-----------|
D-7~~~~~--7---7---x---x---3~~~~~~~~--3---3~~~~~--3---3---2---0---|
pm                                                       .   .

Guitar 2 & 3
E----------------------------------------------------------------|
B----------------------------------------------------------------|
G---------9---10--9~~~~----------9---10--9-------9---10--9---10--|
D-10~~~~-----------------10~~~~--------------10------------------|
A----------------------------------------------------------------|
D----------------------------------------------------------------|

Guitar 1
E----------------------------------------------------------------|
B----------------------------------------------------------------|
G-5~~~~~--5---5--------------------------------------------------|
D-5~~~~~--5---5---x---x---5~~~~~~~~--5---5~~~~~--5---5-----------|
A-3~~~~~--3---3---x---x---5~~~~~~~~--5---5~~~~~--5---5-----------|
D-----------------x---x---5~~~~~~~~--5---5~~~~~--5---5---7---5---|
pm                                                       .   .

Guitar 2 & 3
E----------------------------------------------------------------|
B----------------------------------------------------------------|
G---------9---10--9~~~~----------9---10--9-------9---10--9~~~~---|
D-10~~~~-----------------10~~~~--------------10------------------|
A----------------------------------------------------------------|
D----------------------------------------------------------------|

Guitar 1
E----------------------------------------------------------------|
B----------------------------------------------------------------|
G--------------------------------------------3---2---------------|
D-7~~~~~--7---7---x---x---3~~~~~~~~--3~~~~~----------3-----------|
A-7~~~~~--7---7---x---x---3~~~~~~~~--3~~~~~--------------3---1---|
D-7~~~~~--7---7---x---x---3~~~~~~~~--3~~~~~----------------------|

Guitar 2 & 3
E----------------------------------------------------------------|
B----------------------------------------------------------------|
G-12~~~~~~~~~~~~--10~~~~~~~~~~~~--9~~~~~~~~~~~~~--7\-------------|
D----------------------------------------------------------------|
A----------------------------------------------------------------|
D----------------------------------------------------------------|

Guitar 1
E----------------------------------------------------------------|
B-5~~~~~---------------------------------------------------------|
G-5~~~~~--5---5---5---5------------------------------------------|
D-5~~~~~--5---5---5---5---5~~~~~~~~--5---5~~~~~--5---5---5---5---|
A-3~~~~~--3---3---3---3---5~~~~~~~~--5---5~~~~~--5---5---5---5---|
D-------------------------5~~~~~~~~--5---5~~~~~--5---5---5---5---|

Guitar 2 & 3
E----------------------------------------------------------------|
B----------------------------------------------------------------|
G---------9---10--9~~~~----------9---10--9-------9---10--9~~~~---|
D-10~~~~-----------------10~~~~--------------10------------------|
A----------------------------------------------------------------|
D----------------------------------------------------------------|


Guitar 1
E----------------------------------------------------------------|
B----------------------------------------------------------------|
G----------------------------------------------------------------|
D-7~~~~~--7---7---x---x---3~~~~~~~~--3---3~~~~~--3---3-----------|
A-7~~~~~--7---7---x---x---3~~~~~~~~--3---3~~~~~--3---3-----------|
D-7~~~~~--7---7---x---x---3~~~~~~~~--3---3~~~~~--3---3---2---0---|
pm                                                       .   .

Guitar 2 & 3
E----------------------------------------------------------------|
B----------------------------------------------------------------|
G---------9---10--9~~~~----------9---10--9-------9---10--9---10--|
D-10~~~~-----------------10~~~~--------------10------------------|
A----------------------------------------------------------------|
D----------------------------------------------------------------|

Guitar 1
E----------------------------------------------------------------|
B----------------------------------------------------------------|
G-5~~~~~--5---5--------------------------------------------------|
D-5~~~~~--5---5---x---x---5~~~~~~~~--5---5~~~~~--5---5-----------|
A-3~~~~~--3---3---x---x---5~~~~~~~~--5---5~~~~~--5---5-----------|
D-----------------x---x---5~~~~~~~~--5---5~~~~~--5---5---7---5---|
pm                                                       .   .

Guitar 2 & 3
E----------------------------------------------------------------|
B----------------------------------------------------------------|
G---------9---10--9~~~~----------9---10--9-------9---10--9~~~~---|
D-10~~~~-----------------10~~~~--------------10------------------|
A----------------------------------------------------------------|
D----------------------------------------------------------------|

Guitar 1
E----------------------------------------------------------------|
B----------------------------------------------------------------|
G----------------------------------------------------------------|
D-7~~~~~--7---7---x---x---3~~~~~~~~--3---3~~~~~--3---3---3---3---|
A-7~~~~~--7---7---x---x---3~~~~~~~~--3---3~~~~~--3---3---3---3---|
D-7~~~~~--7---7---x---x---3~~~~~~~~--3---3~~~~~--3---3---3---3---|

Guitar 2 & 3
E----------------------------------------------------------------|
B----------------------------------------------------------------|
G-12~~~~~~~~~~~~--10~~~~~~~~~~~~--9~~~~~~~~~~~~~--7\-------------|
D----------------------------------------------------------------|
A----------------------------------------------------------------|
D----------------------------------------------------------------|

Interlude

Guitar 1 & 2
E----------------------------------------------------------------|
B----------------------------------------------------------------|
G----------------------------------------------------------------|
D-7---7---7---7---7---7---7---7---7---7---7---7---7---7---7---7--|
A-7---7---7---7---7---7---7---7---7---7---7---7---7---7---7---7--|
D-7---7---7---7---7---7---7---7---7---7---7---7---7---7---7---7--|

Guitar 3
E----------------------------------------------------------------|
B----------------------------------------------------------------|
G-12~~~~~~~~~~~~~~~~~~~~~~~~~~~~~~~~~~~~~~~~~~~~~~~~~~~~~~~14~~--|
D----------------------------------------------------------------|
A----------------------------------------------------------------|
D----------------------------------------------------------------|

Guitar 1 & 2
E----------------------------------------------------------------|
B----------------------------------------------------------------|
G----------------------------------------------------------------|
D-5---5---5---5---5---5---5---5---5---5---5---5---5---5---5---5--|
A-5---5---5---5---5---5---5---5---5---5---5---5---5---5---5---5--|
D-5---5---5---5---5---5---5---5---5---5---5---5---5---5---5---5--|

Guitar 3
E----------------------------------------------------------------|
B----------------------------------------------------------------|
G-12~~~~~~~~~~~~~~~~~~~~~~~~~~~~~~~~~~~~~~~~~~~~~~~~~~~~~~~14~~--|
D----------------------------------------------------------------|
A----------------------------------------------------------------|
D----------------------------------------------------------------|

Guitar 1 & 2
E----------------------------------------------------------------|
B----------------------------------------------------------------|
G----------------------------------------------------------------|
D-3---3---3---3---3---3---3---3---3---3---3---3---3---3---3---3--|
A-3---3---3---3---3---3---3---3---3---3---3---3---3---3---3---3--|
D-3---3---3---3---3---3---3---3---3---3---3---3---3---3---3---3--|

Guitar 3
E----------------------------------------------------------------|
B----------------------------------------------------------------|
G-12~~~~~~~~~~~~~~~~~~~~~~~~~~~~~~~~~~~~~~~~~~~~~~~~~~~~~~~14~~--|
D----------------------------------------------------------------|
A----------------------------------------------------------------|
D----------------------------------------------------------------|

Guitar 1
E----------------------------------------------------------------|
B----------------------------------------------------------------|
G----------------------------------------------------------------|
D-5---5---5---5---5---5---5---5---5---5---5---5---5---5---5---5--|
A-5---5---5---5---5---5---5---5---5---5---5---5---5---5---5---5--|
D-5---5---5---5---5---5---5---5---5---5---5---5---5---5---5---5--|

Guitar 2
E----------------------------------------------------------------|
B----------------------------------------------------------------|
G------------------------------------------------------------10--|
D-5---5---5---5---5---5---5---5---5---5---5---5-----10h12h14-----|
A-5---5---5---5---5---5---5---5---5---5---5---5------------------|
D-5---5---5---5---5---5---5---5---5---5---5---5------------------|

Guitar 3
E----------------------------------------------------------------|
B----------------------------------------------------------------|
G-12~~~~~~~~~~~~~~~~~~~~~~~~~~~~~~~~~~~~~~~~~~~~~~~~~~~~~~~~~~~--
D----------------------------------------------------------------|
A----------------------------------------------------------------|
D----------------------------------------------------------------|

Guitar 1
E----------------------------------------------------------------|
B----------------------------------------------------------------|
G----------------------------------------------------------------|
D-7---7---7---7---7---7---7---7---7---7---7---7---7---7---7---7--|
A-7---7---7---7---7---7---7---7---7---7---7---7---7---7---7---7--|
D-7---7---7---7---7---7---7---7---7---7---7---7---7---7---7---7--|

Guitar 2
E----------------------------------------------------------------|
B----------------------------------------------------------------|
G-12~~~~~~~~~~~~~~~~~~~~--9~~~~~~~~~~~~~~~~~~~~~~----------------|
D--------------------------------------------------8---10--8~~~--|
A----------------------------------------------------------------|
D----------------------------------------------------------------|

Guitar 3
E----------------------------------------------------------------|
B----------------------------------------------------------------|
G-12~~~~~~~~~~~~~~~~~~~~--9~~~~~~~~~~~~~~~~~~~~~~~~~~~~~~--------|
D----------------------------------------------------------8~~~--|
A----------------------------------------------------------------|
D----------------------------------------------------------------|

Guitar 1
E----------------------------------------------------------------|
B----------------------------------------------------------------|
G----------------------------------------------------------------|
D-5---5---5---5---5---5---5---5---5---5---5---5---5---5---5---5--|
A-5---5---5---5---5---5---5---5---5---5---5---5---5---5---5---5--|
D-5---5---5---5---5---5---5---5---5---5---5---5---5---5---5---5--|
Guitar 2
E-----------------------------------------------------------------|
B-----------------------------------------------------------------|
G-12~~~~~~~~~~~~~~~~~~~~--9~~~~~~~~~~~~~~~~~~~~------13------13~~-|
D------------------------------------------------15------15-------|
A-----------------------------------------------------------------|
D-----------------------------------------------------------------|

Guitar 3
E----------------------------------------------------------------|
B----------------------------------------------------------------|
G-12~~~~~~~~~~~~~~~~~~~~--9~~~~~~~~~~~~~~~~~~~~~~~~~~~~~~--------|
D----------------------------------------------------------8~~~--|
A----------------------------------------------------------------|
D----------------------------------------------------------------|

Guitar 1
E----------------------------------------------------------------|
B----------------------------------------------------------------|
G----------------------------------------------------------------|
D-3---3---3---3---3---3---3---3---3---3---3---3---3---3---3---3--|
A-3---3---3---3---3---3---3---3---3---3---3---3---3---3---3---3--|
D-3---3---3---3---3---3---3---3---3---3---3---3---3---3---3---3--|

Guitar 2
E--------------------------------------------------16h18b~-16h18p16-|
B-16b~-16~-21-17-15~-21-17-15~-21-17-15~-21-17-15~------------------|
G-------------------------------------------------------------------|
D-------------------------------------------------------------------|
A-------------------------------------------------------------------|
D-------------------------------------------------------------------|

Guitar 3
E----------------------------------------------------------------|
B----------------------------------------------------------------|
G-12~~~~~~~~~~~~~~~~~~~~--9~~~~~~~~~~~~~~~~~~~~~~~~~~~~~~--------|
D----------------------------------------------------------8~~~--|
A----------------------------------------------------------------|
D----------------------------------------------------------------|

Guitar 1
E----------------------------------------------------------------|
B----------------------------------------------------------------|
G----------------------------------------------------------------|
D-5---5---5---5---5---5---5---5---5---5---5---5---5---5---5---5--|
A-5---5---5---5---5---5---5---5---5---5---5---5---5---5---5---5--|
D-5---5---5---5---5---5---5---5---5---5---5---5---5---5---5---5--|

Guitar 2
E--------------------------------------------------16-----------16-|
B-18-17-17~-18---17---15--------15--------15b~~~~~-----15b~~~~~----|
G--------------------------18--------18----------------------------|
D------------------------------------------------------------------|
A------------------------------------------------------------------|
D------------------------------------------------------------------|

Guitar 3
E----------------------------------------------------------------|
B----------------------------------------------------------------|
G-12~~~~~~~~~~~~~~~~~~~~~~~~~~~~~~~~~~~~~~~~~~~~~~~~~~~~~~~~~~~--
D----------------------------------------------------------------|
A----------------------------------------------------------------|
D----------------------------------------------------------------|

Bridge 2

Guitar 1
E--------------------------------|
B--------------------------------|
G-5~~~~~~~~~~~~~~~~~~~~~~~~~~~~~~
D-5~~~~~~~~~~~~~~~~~~~~~~~~~~~~~~
A-3~~~~~~~~~~~~~~~~~~~~~~~~~~~~~~
D--------------------------------

Guitar 2 & 3
E--------------------------------
B-13~~~~~~~~~~~~~~~~~~~~~~~~~~~~~
G--------------------------------|
D--------------------------------|
A--------------------------------|
D--------------------------------|

Guitar 1
E-----------------------------------------------------------------|
B-----------------------------------------------------------------|
G-~~~~~~~~~~~~~~~~~~~~~~~~~~~~~~~---------------------------------|
D-~~~~~~~~~~~~~~~~~~~~~~~~~~~~~~~---------------------------------|
A-~~~~~~~~~~~~~~~~~~~~~~~~~~~~~~~---------------------------------|
D-----------------------------------------------------------------|

Guitar 2
E-----------------------------------------------------------------|
B-\---------------------------------------------------------------|
G-----------------------------------------------------------------|
D-----------------------------------------------------------------|
A-----------------------------------------------------------------|
D-----------------------------------------------------------------|

Guitar 3
E-----------------------------------------------------------------|
B-~~~~~~~~~~~~~~~~~~~~~~~~~~~~~~~---------------------------------|
G-----------------------------------------------------------------|
D-----------------------------------------------------------------|
A-----------------------------------------------------------------|
D-----------------------------------------------------------------|

Guitar 4
E-----------------------------------------------------------------|
B-13~~~~~~~~--13~~~~~~~~--13~~~~~~~--12---12~~~--10---12~~~--12---|
G-12~~~~~~~~--12~~~~~~~~--12~~~~~~~--12---12~~~--12---12~~~--12---|
D-10~~~~~~~~--10~~~~~~~~--10~~~~~~~--10---10~~~--10---10~~~--10---|
A-10~~~~~~~~--10~~~~~~~~--10~~~~~~~--10---10~~~--10---10~~~--10---|
D------------------------------------10---10~~~--10---10~~~--10---|

Guitar 4
E-----------------------------------------------------------------|
B-10~~~~~~~~--10~~~~~~~~--10~~~~~~~--6----5~~~~--6----5~~~~--5----|
G-9~~~~~~~~~--9~~~~~~~~~--9~~~~~~~~--5----5~~~~--5----5~~~~--5----|
D-7~~~~~~~~~--7~~~~~~~~~--7~~~~~~~~--3----3~~~~--3----3~~~~--3----|
A-7~~~~~~~~~--7~~~~~~~~~--7~~~~~~~~--3----3~~~~--3----3~~~~--3----|
D-----------------------------------------------------------------|

Guitar 4
E-----------------------------------------------------------------|
B-13~~~~~~~~--13~~~~~~~~--13~~~~~~~--12---12~~~--10---12~~~--12---|
G-12~~~~~~~~--12~~~~~~~~--12~~~~~~~--12---12~~~--12---12~~~--12---|
D-10~~~~~~~~--10~~~~~~~~--10~~~~~~~--10---10~~~--10---10~~~--10---|
A-10~~~~~~~~--10~~~~~~~~--10~~~~~~~--10---10~~~--10---10~~~--10---|
D------------------------------------10---10~~~--10---10~~~--10---|

Guitar 4
E-----------------------------------------------------------------|
B-10~~~~~~~~--10~~~~~~~~--10~~~~~~~--6----5~~~~--6----5~~~~--5----|
G-9~~~~~~~~~--9~~~~~~~~~--9~~~~~~~~--5----5~~~~--5----5~~~~--5----|
D-7~~~~~~~~~--7~~~~~~~~~--7~~~~~~~~--3----3~~~~--3----3~~~~--3----|
A-7~~~~~~~~~--7~~~~~~~~~--7~~~~~~~~--3----3~~~~--3----3~~~~--3----|
D-----------------------------------------------------------------|

Guitar 1 & 2 (Fade In)
E-----------------------------------------------------------------|
B-----------------------------------------------------------------|
G-5---5---5---5---5---5-------------------------------------------|
D-5---5---5---5---5---5---5---5---5---5---5---5---5---5---5---5---|
A-3---3---3---3---3---3---5---5---5---5---5---5---5---5---5---5---|
D-------------------------5---5---5---5---5---5---5---5---5---5---|
pm.   .   .   .   .   .   .   .   .   .   .   .   .   .   .   .

Guitar 3 (Fade In)
E-----------------------------------------------------------------|
B-----------------------------------------------------------------|
G-12~~~~~~~~~~~~~~~~~~~~~~~~~~~~--10~~~~~~~~~~~~--9~~~~~--10~~~~--|
D-----------------------------------------------------------------|
A-----------------------------------------------------------------|
D-----------------------------------------------------------------|

Guitar 4
E-----------------------------------------------------------------|
B-13~~~~~~~~--13~~~~~~~~--13~~~~~~~--12---12~~~--10---12~~~--12---|
G-12~~~~~~~~--12~~~~~~~~--12~~~~~~~--12---12~~~--12---12~~~--12---|
D-10~~~~~~~~--10~~~~~~~~--10~~~~~~~--10---10~~~--10---10~~~--10---|
A-10~~~~~~~~--10~~~~~~~~--10~~~~~~~--10---10~~~--10---10~~~--10---|
D------------------------------------10---10~~~--10---10~~~--10---|

Guitar 1 & 2 (Fade In)
E-----------------------------------------------------------------|
B-----------------------------------------------------------------|
G-----------------------------------------------------------------|
D-7---7---7---7---7---7---3---3---3---3---3---3---3---3---3---3---|
A-7---7---7---7---7---7---3---3---3---3---3---3---3---3---3---3---|
D-7---7---7---7---7---7---3---3---3---3---3---3---3---3---3---3---|
pm.   .   .   .   .   .   .   .

Guitar 3
E-----------------------------------------------------------------|
B-----------------------------------------------------------------|
G-12~~~~~~~~~~~~~~~~~~~~~~~~~~~~--10~~~~~~~~~~~~--9~~~~~--10~~~~--|
D-----------------------------------------------------------------|
A-----------------------------------------------------------------|
D-----------------------------------------------------------------|

Guitar 4
E-----------------------------------------------------------------|
B-10~~~~~~~~--10~~~~~~~~--10~~~~~~~--6----5~~~~--6----5~~~~--5----|
G-9~~~~~~~~~--9~~~~~~~~~--9~~~~~~~~--5----5~~~~--5----5~~~~--5----|
D-7~~~~~~~~~--7~~~~~~~~~--7~~~~~~~~--3----3~~~~--3----3~~~~--3----|
A-7~~~~~~~~~--7~~~~~~~~~--7~~~~~~~~--3----3~~~~--3----3~~~~--3----|
D-----------------------------------------------------------------|

Guitar 1 & 2
E-----------------------------------------------------------------|
B-----------------------------------------------------------------|
G-5~~~~~~~~~~~~~~~~~~~~~------------------------------------------|
D-5~~~~~~~~~~~~~~~~~~~~~--5~~~~~~~~~~~~~~~~~~~~~~~~~~~~~~~~~~~~~--|
A-3~~~~~~~~~~~~~~~~~~~~~--5~~~~~~~~~~~~~~~~~~~~~~~~~~~~~~~~~~~~~--|
D-------------------------5~~~~~~~~~~~~~~~~~~~~~~~~~~~~~~~~~~~~~--|

Guitar 3
E-----------------------------------------------------------------|
B-----------------------------------------------------------------|
G-12~~~~~~~~~~~~~~~~~~~~~~~~~~~~--10~~~~~~~~~~~~--9~~~~~--10~~~~--|
D-----------------------------------------------------------------|
A-----------------------------------------------------------------|
D-----------------------------------------------------------------|

Guitar 1
E-----------------------------------------------------------------|
B-----------------------------------------------------------------|
G-----------------------------------------------------------------|
D-7~~~~~~~~~~~~~~~~~~~~~--3~~~~~~~~~~~~~~~~~~~~~~~~~~~~~~~~~~~~~--|
A-7~~~~~~~~~~~~~~~~~~~~~--3~~~~~~~~~~~~~~~~~~~~~~~~~~~~~~~~~~~~~--|
D-7~~~~~~~~~~~~~~~~~~~~~--3~~~~~~~~~~~~~~~~~~~~~~~~~~~~~~~~~~~~~--|

Guitar 2
E-----------------------------------------------------------------|
B-----------------------------------------------------------------|
G-----------------------------------------------------------------|
D-7~~~~~~~~~~~~~~~~~~~~~--3~~~~~~~--3---3---3------3---3---3------|
A-7~~~~~~~~~~~~~~~~~~~~~--3~~~~~~~--3---3---3------3---3---3------|
D-7~~~~~~~~~~~~~~~~~~~~~--3~~~~~~~--3---3---3------3---3---3------|
pm                                  .   .   .      .   .   .

Guitar 3
E-----------------------------------------------------------------|
B-----------------------------------------------------------------|
G-12~~~~~~~~~~~~~~~~~~~~~~~~~~~~--10~~~~~~~~~~~~--9~~~~~--10~~~~--|
D-----------------------------------------------------------------|
A-----------------------------------------------------------------|
D-----------------------------------------------------------------|

Chorus

Guitar 1
E----------------------------------------------------------------|
B-5~~~~~---------------------------------------------------------|
G-5~~~~~--5---5---5---5------------------------------------------|
D-5~~~~~--5---5---5---5---5~~~~~~~~--5---5~~~~~--5---5---5---5---|
A-3~~~~~--3---3---3---3---5~~~~~~~~--5---5~~~~~--5---5---5---5---|
D-------------------------5~~~~~~~~--5---5~~~~~--5---5---5---5---|

Guitar 2 & 3
E----------------------------------------------------------------|
B----------------------------------------------------------------|
G---------9---10--9~~~~----------9---10--9-------9---10--9~~~~---|
D-10~~~~-----------------10~~~~--------------10------------------|
A----------------------------------------------------------------|
D----------------------------------------------------------------|


Guitar 1
E----------------------------------------------------------------|
B----------------------------------------------------------------|
G----------------------------------------------------------------|
D-7~~~~~--7---7---x---x---3~~~~~~~~--3---3~~~~~--3---3-----------|
A-7~~~~~--7---7---x---x---3~~~~~~~~--3---3~~~~~--3---3-----------|
D-7~~~~~--7---7---x---x---3~~~~~~~~--3---3~~~~~--3---3---2---0---|
pm                                                       .   .

Guitar 2 & 3
E----------------------------------------------------------------|
B----------------------------------------------------------------|
G---------9---10--9~~~~----------9---10--9-------9---10--9---10--|
D-10~~~~-----------------10~~~~--------------10------------------|
A----------------------------------------------------------------|
D----------------------------------------------------------------|

Guitar 1
E----------------------------------------------------------------|
B----------------------------------------------------------------|
G-5~~~~~--5---5--------------------------------------------------|
D-5~~~~~--5---5---x---x---5~~~~~~~~--5---5~~~~~--5---5-----------|
A-3~~~~~--3---3---x---x---5~~~~~~~~--5---5~~~~~--5---5-----------|
D-----------------x---x---5~~~~~~~~--5---5~~~~~--5---5---7---5---|
pm                                                       .   .

Guitar 2 & 3
E----------------------------------------------------------------|
B----------------------------------------------------------------|
G---------9---10--9~~~~----------9---10--9-------9---10--9~~~~---|
D-10~~~~-----------------10~~~~--------------10------------------|
A----------------------------------------------------------------|
D----------------------------------------------------------------|

Guitar 1
E----------------------------------------------------------------|
B----------------------------------------------------------------|
G--------------------------------------------3---2---------------|
D-7~~~~~--7---7---x---x---3~~~~~~~~--3~~~~~----------3-----------|
A-7~~~~~--7---7---x---x---3~~~~~~~~--3~~~~~--------------3---1---|
D-7~~~~~--7---7---x---x---3~~~~~~~~--3~~~~~----------------------|

Guitar 2 & 3
E----------------------------------------------------------------|
B----------------------------------------------------------------|
G-12~~~~~~~~~~~~--10~~~~~~~~~~~~--9~~~~~~~~~~~~~--7\-------------|
D----------------------------------------------------------------|
A----------------------------------------------------------------|
D----------------------------------------------------------------|

Guitar 1
E----------------------------------------------------------------|
B-5~~~~~---------------------------------------------------------|
G-5~~~~~--5---5---5---5------------------------------------------|
D-5~~~~~--5---5---5---5---5~~~~~~~~--5---5~~~~~--5---5---5---5---|
A-3~~~~~--3---3---3---3---5~~~~~~~~--5---5~~~~~--5---5---5---5---|
D-------------------------5~~~~~~~~--5---5~~~~~--5---5---5---5---|

Guitar 2 & 3
E----------------------------------------------------------------|
B----------------------------------------------------------------|
G---------9---10--9~~~~----------9---10--9-------9---10--9~~~~---|
D-10~~~~-----------------10~~~~--------------10------------------|
A----------------------------------------------------------------|
D----------------------------------------------------------------|


Guitar 1
E----------------------------------------------------------------|
B----------------------------------------------------------------|
G----------------------------------------------------------------|
D-7~~~~~--7---7---x---x---3~~~~~~~~--3---3~~~~~--3---3-----------|
A-7~~~~~--7---7---x---x---3~~~~~~~~--3---3~~~~~--3---3-----------|
D-7~~~~~--7---7---x---x---3~~~~~~~~--3---3~~~~~--3---3---2---0---|
pm                                                       .   .

Guitar 2 & 3
E----------------------------------------------------------------|
B----------------------------------------------------------------|
G---------9---10--9~~~~----------9---10--9-------9---10--9---10--|
D-10~~~~-----------------10~~~~--------------10------------------|
A----------------------------------------------------------------|
D----------------------------------------------------------------|

Guitar 1
E----------------------------------------------------------------|
B----------------------------------------------------------------|
G-5~~~~~--5---5--------------------------------------------------|
D-5~~~~~--5---5---x---x---5~~~~~~~~--5---5~~~~~--5---5-----------|
A-3~~~~~--3---3---x---x---5~~~~~~~~--5---5~~~~~--5---5-----------|
D-----------------x---x---5~~~~~~~~--5---5~~~~~--5---5---7---5---|
pm                                                       .   .

Guitar 2 & 3
E----------------------------------------------------------------|
B----------------------------------------------------------------|
G---------9---10--9~~~~----------9---10--9-------9---10--9~~~~---|
D-10~~~~-----------------10~~~~--------------10------------------|
A----------------------------------------------------------------|
D----------------------------------------------------------------|

Guitar 1
E----------------------------------------------------------------|
B----------------------------------------------------------------|
G----------------------------------------------------------------|
D-7~~~~~--7---7---x---x---3~~~~~~~~--3---3~~~~~--3---3---3---3---|
A-7~~~~~--7---7---x---x---3~~~~~~~~--3---3~~~~~--3---3---3---3---|
D-7~~~~~--7---7---x---x---3~~~~~~~~--3---3~~~~~--3---3---3---3---|

Guitar 2 & 3
E----------------------------------------------------------------|
B----------------------------------------------------------------|
G-12~~~~~~~~~~~~--10~~~~~~~~~~~~--9~~~~~~~~~~~~~--7\-------------|
D----------------------------------------------------------------|
A----------------------------------------------------------------|
D----------------------------------------------------------------|

Outro

Guitar 1
E----------------------------------------------------------------|
B-5~~~~~---------------------------------------------------------|
G-5~~~~~--5---5---5---5------------------------------------------|
D-5~~~~~--5---5---5---5---5~~~~~~~~--5---5~~~~~--5---5---5---5---|
A-3~~~~~--3---3---3---3---5~~~~~~~~--5---5~~~~~--5---5---5---5---|
D-------------------------5~~~~~~~~--5---5~~~~~--5---5---5---5---|

Guitar 2 & 3
E----------------------------------------------------------------|
B-16b~~~~~~~--16b~~~~~~~--16b~~~~~~~~~~~~~~~~~~~~~~~~~~~~~~~~~~--|
G----------------------------------------------------------------|
D----------------------------------------------------------------|
A----------------------------------------------------------------|
D----------------------------------------------------------------|

Guitar 1
E----------------------------------------------------------------|
B----------------------------------------------------------------|
G----------------------------------------------------------------|
D-7~~~~~--7---7---x---x---3~~~~~~~~--3---3~~~~~--3---3-----------|
A-7~~~~~--7---7---x---x---3~~~~~~~~--3---3~~~~~--3---3-----------|
D-7~~~~~--7---7---x---x---3~~~~~~~~--3---3~~~~~--3---3---2---0---|
pm                                                       .   .

Guitar 2 & 3
E----------------------------------------------------------------|
B-17~~~~~--17p15-------------------------------------------------|
G-----------------17~~-14-17~~~~~~~~~~~~~~~~~~~~~~~~~~~~~~~~~~~--|
D----------------------------------------------------------------|
A----------------------------------------------------------------|
D----------------------------------------------------------------|

Guitar 1
E----------------------------------------------------------------|
B----------------------------------------------------------------|
G-5~~~~~--5---5--------------------------------------------------|
D-5~~~~~--5---5---x---x---5~~~~~~~~--5---5~~~~~--5---5-----------|
A-3~~~~~--3---3---x---x---5~~~~~~~~--5---5~~~~~--5---5-----------|
D-----------------x---x---5~~~~~~~~--5---5~~~~~--5---5---7---5---|
pm                                                       .   .

Guitar 2 & 3
E-----------------------------------------------------------------|
B-16b~~~~~~~--18~~~~~~~~--17~~~~~~~--15~~~~~~~--17p15p13----13h15-|
G--------------------------------------------------------14-------|
D-----------------------------------------------------------------|
A-----------------------------------------------------------------|
D-----------------------------------------------------------------|

Guitar 1
E----------------------------------------------------------------|
B----------------------------------------------------------------|
G----------------------------------------------------------------|
D-7~~~~~--7---7---x---x---3~~~~~~~~--3---3~~~~~--3---3---3---3---|
A-7~~~~~--7---7---x---x---3~~~~~~~~--3---3~~~~~--3---3---3---3---|
D-7~~~~~--7---7---x---x---3~~~~~~~~--3---3~~~~~--3---3---3---3---|

Guitar 2 & 3
E-------------------------16~~~~~~~~~~~~~~~~~~~~~~~~~~~~~~~~~~~--|
B-17~~~~~~~~--18~~~~~~~~-----------------------------------------|
G----------------------------------------------------------------|
D----------------------------------------------------------------|
A----------------------------------------------------------------|
D----------------------------------------------------------------|

Guitar 1 & 3
E----------------------------------------------------------------|
B-5~~~~~---------------------------------------------------------|
G-5~~~~~--5---5---5---5------------------------------------------|
D-5~~~~~--5---5---5---5---5~~~~~~~~--5---5~~~~~--5---5---5---5---|
A-3~~~~~--3---3---3---3---5~~~~~~~~--5---5~~~~~--5---5---5---5---|
D-------------------------5~~~~~~~~--5---5~~~~~--5---5---5---5---|

Guitar 2
E----------------------------------------------------------------|
B----------------------------------------------------------------|
G-13b~~~~~~~--13b~~~~~~~--12~~~~~~~~~~~~~~~~~~~~~~~------10--12--|
D----------------------------------------------------12----------|
A----------------------------------------------------------------|
D----------------------------------------------------------------|
pm                                                   .

Guitar 1 & 3
E----------------------------------------------------------------|
B----------------------------------------------------------------|
G----------------------------------------------------------------|
D-7~~~~~--7---7---x---x---3~~~~~~~~--3---3~~~~~--3---3-----------|
A-7~~~~~--7---7---x---x---3~~~~~~~~--3---3~~~~~--3---3-----------|
D-7~~~~~--7---7---x---x---3~~~~~~~~--3---3~~~~~--3---3---2---0---|
pm                                                       .   .

Guitar 2
E----------------------------------------------------------------|
B----------------------------------------------------------------|
G-14--12------10~~~~~~~------10--14--12------10~~~~~~~~~~~~~~~~--|
D---------12-------------12--------------12----------------------|
A----------------------------------------------------------------|
D----------------------------------------------------------------|

Guitar 1
E----------------------------------------------------------------|
B----------------------------------------------------------------|
G-5~~~~~--5---5--------------------------------------------------|
D-5~~~~~--5---5---x---x---5~~~~~~~~--5---5~~~~~--5---5-----------|
A-3~~~~~--3---3---x---x---5~~~~~~~~--5---5~~~~~--5---5-----------|
D-----------------x---x---5~~~~~~~~--5---5~~~~~--5---5---7---5---|
pm                                                       .   .

Guitar 2
E----------------------------------------------------------------|
B----------------------------------------------------------------|
G-------------------------17~~~~~~~~~~~~~~~~~~~~~~~~~~~~~~~~~~~--|
D-14~~~~~~~~--15~~~~~~~~-----------------------------------------|
A----------------------------------------------------------------|
D----------------------------------------------------------------|

Guitar 1 & 3
E-----------------------------------------------------------------|
B-----------------------------------------------------------------|
G-----------------------------------------------------------------|
D-7~~~~~--7---7---x---x---3~~~~~~~~~~~~~~~~~~~~~~~~~~~~~~~~~~~~~~-|
A-7~~~~~--7---7---x---x---3~~~~~~~~~~~~~~~~~~~~~~~~~~~~~~~~~~~~~~-|
D-7~~~~~--7---7---x---x---3~~~~~~~~~~~~~~~~~~~~~~~~~~~~~~~~~~~~~~-|

Guitar 2
E-16~~~~~~~~------------------------------------------------------|
B-------------18~~~~~~--------------------------------------------|
G-------------------------17br~~~~~~~~~~~~~~~~~~~~~~~~~~~~~~~~~~~-|
D-----------------------------------------------------------------|
A-----------------------------------------------------------------|
D-----------------------------------------------------------------|

Tab Legend
h  -  hammer-on
p  -  pull-off
/  -  slide up
\  -  slide down
ps/-  pickslide up
ps\-  pickslide down
~  -  let ring
pm.-  palm mute
b  -  bend
r  -  return from bend
*  -  harmonic
x  -  dead note

There you go, beautiful song, and hopefully a beautiful tab. If you have any suggestions 
tabs that are not made, or not finished, email me, and I can see what I can do. Thanks, 
and one last thing... ROCK OUT!!!!

            
            
Suggest correction
Creating personal tab
Creating personal tab
You can edit any tab online and save it as your Personal.

You can edit, replace or remove any tab part or add personal notes – all changes will be seen only by you.

Personal tabs can be accessed anytime from any device, even offline.
Learn more »
Give kudos to tab author, rate the tab!
1 2 3 4 5
comments
print report bad tab
guest
You may want to rate the tab now too:
select rating
Wanna post a correction for this tab? Suggest correction