Oops, an error
Loading. Please wait.

Interweb bass

by Poppy
160 views 12 this week
no commentswrite comment
1 2 3 4 5
3 more votes to show rating
add to favorites
×
Save as Personal and add changes to this tab that will be seen only by you. Learn more ›
×
You can save this tab as Personal to edit and correct it or add notes. All changes will be seen only by you. Learn more »
launch autoscroll
font size
0
reset
guitar tuner
edit
Autoscroll
slow
fast
+/-
esc
set tempo
stop
About this tab version
This is the only bass tab for this song. The tab is different from the song since at some parts it is difficult to mimic the computer bass but it is as accurate as it can be. The PreChorus is a bit off but it works. Was this info helpful? Yes No
[Intro/Verse]
 
 0:09
G|---------------------------------|------------------------------------|
D|---0---0---0---0---0---0---0---0-|---5---5---5---5---5---5---3---2----|
A|---------------------------------|------------------------------------|
D|-0---0---0---0---0---0---0---0---|-5---5---5---5---5---5---3---2------|(x3)

[Bridge] (This is an extremely quick change from the Verse)
(0:34)
G|---------------------------------|---------------------------------|
D|---5---5---5---5---5---5---5---5-|---7---7---7---7---7---7---7---7-|
A|---------------------------------|---------------------------------|
D|-5---5---5---5---5---5---5---5---|-7---7---7---7---7---7---7---7---|

[Pre-Chorus]
(0:42) 
"...I'll Catch you in my Interweb"
G|-----------------|---------------|-----------------|-------------|
D|-----------------|---------------|-----------------|-------------|
A|-0h5-5-5-5p3-3-5-|-5-5-5p3-3-4-4-|-0h5-5-5p3-3-3-5-|-5-5-5p3-4-4-|
D|-----------------|---------------|-----------------|-------------|

G|-----------------|---------------|-----------------|-------------|
D|-----------------|---------------|-----------------|-------------|
A|-0h5-5p3-3-5-3-5-|-5-5-5p3-3-4-4-|-0h5-5-5p3-3-3-5-|-5-5-5p3-4-4-|
D|-----------------|---------------|-----------------|-------------|

[Chorus]
(0:59)
G|-----7-----7------7-----7-|------12------12-------9---8------|
D|--------------------------|----------------------------------|
A|-3/5---3/5---3/5----3/5---|-8/10----8/10----10\-7---6--------|
D|--------------------------|----------------------------------|(x2)

[Verse 2]
G|---------------------------------|------------------------------------|
D|---0---0---0---0---0---0---0---0-|---5---5---5---5---5---5---3---2----|
A|---------------------------------|------------------------------------|
D|-0---0---0---0---0---0---0---0---|-5---5---5---5---5---5---3---2------|(x3)

[Bridge] (This is an extremely quick change from the Verse)
(0:34)
G|---------------------------------|---------------------------------|
D|---5---5---5---5---5---5---5---5-|---7---7---7---7---7---7---7---7-|
A|---------------------------------|---------------------------------|
D|-5---5---5---5---5---5---5---5---|-7---7---7---7---7---7---7---7---|

[Pre-Chorus]
  "...I'll Catch you in my Interweb"
G|-----------------|---------------|-----------------|-------------|
D|-----------------|---------------|-----------------|-------------|
A|-0h5-5-5-5p3-3-5-|-5-5-5p3-3-4-4-|-0h5-5-5p3-3-3-5-|-5-5-5p3-4-4-|
D|-----------------|---------------|-----------------|-------------|

G|-----------------|---------------|-----------------|-------------|
D|-----------------|---------------|-----------------|-------------|
A|-0h5-5p3-3-5-3-5-|-5-5-5p3-3-4-4-|-0h5-5-5p3-3-3-5-|-5-5-5p3-4-4-|
D|-----------------|---------------|-----------------|-------------|

[Chorus]
(0:59)
G|-----7-----7------7-----7-|------12------12-------9---8------|
D|--------------------------|----------------------------------|
A|-3/5---3/5---3/5----3/5---|-8/10----8/10----10\-7---6--------|
D|--------------------------|----------------------------------|(x2)

[Bridge]
G|---4---4---4---4-|-----------------|---7---7---7---7-|-------------------------|
D|-----------------|---5---5---5---5-|-0---0---0---0---|---7---7---7---7---8---9-|
A|-2---2---2---2---|-----------------|-----------------|-0---0---0---0-----------|
D|-----------------|-5---5---5---5---|-----------------|-----------------8---9---|
           
                                                    sus.--------      pause
G|---4---4---4---4---4---4---4---4--|---------------------------------|--|
D|----------------------------------|---5---5---5---5-----------------|--|
A|-2---2---2---2---2---2---2---2----|---------------------------------|--|
D|----------------------------------|-5---5---5---5-5-----------------|--|

[Pre-Chorus 3]
G|-----------------|---------------|-----------------|-------------|
D|-----------------|---------------|-----------------|-------------|
A|-0h5-5-5-5p3-3-5-|-5-5-5p3-3-4-4-|-0h5-5-5p3-3-3-5-|-5-5-5p3-4-4-|
D|-----------------|---------------|-----------------|-------------|

G|-----------------|---------------|-----------------|-------------|
D|-----------------|---------------|-----------------|-------------|
A|-0h5-5p3-3-5-3-5-|-5-5-5p3-3-4-4-|-0h5-5-5p3-3-3-5-|-5-5-5p3-4-4-|
D|-----------------|---------------|-----------------|-------------|(x2)

[Chorus]
G|-----7-----7------7-----7-|------12------12-------9---8------|
D|--------------------------|----------------------------------|
A|-3/5---3/5---3/5----3/5---|-8/10----8/10----10\-7---6--------|
D|--------------------------|----------------------------------|(x2)

No Bass in the Outro "La La La La La"

************************************

| h   Hammer-on
| p   Pull-off
| /   Slide up
| \   Slide down
| sus Sustain

************************************

            
            
Suggest correction
Creating personal tab
Creating personal tab
You can edit any tab online and save it as your Personal.

You can edit, replace or remove any tab part or add personal notes – all changes will be seen only by you.

Personal tabs can be accessed anytime from any device, even offline.
Learn more »
Give kudos to tab author, rate the tab!
1 2 3 4 5
comments
print report bad tab
guest
You may want to rate the tab now too:
select rating
Wanna post a correction for this tab? Suggest correction