Oops, an error
Loading. Please wait.

Faltaron Huevos tab

32 views 1 this week
no commentswrite comment
1 2 3 4 5
3 more votes to show rating
add to favorites
×
Save as Personal and add changes to this tab that will be seen only by you. Learn more ›
×
You can save this tab as Personal to edit and correct it or add notes. All changes will be seen only by you. Learn more »
launch autoscroll
font size
0
reset
how to read this tab
guitar tuner
edit
Autoscroll
slow
fast
+/-
esc
set tempo
stop
Bueno  esta cancion de por dinero clasicos acordes  de rock .muy buena
 Faltaron huevos

 INTRO:
E-7-7-7-7-7---------------9---7-7-7
B-7-7-7-7-7---------------9---7-7-7
G-9-9-9-8-8-se repite x 3-11-9-8-9
D-9-9-9-9-9---------------11-9-9-9
A-7-7-7-9-9---------------9---7-9-7
E-7-7-7-7-7---------------9---7-7-7

MIm  SIm  FA#m  MIm  SIm  MIm

MIm
la verdad nunca fui un rockero

Siempre siempre me faltaron huevos

La verdad nunca fui sincero

Siempre fui un simple chiflero
INTRO.
 E-----------7-----------7H9H7----------7--------9-7-----------14
 B-------7-9-9-----7-9---------------7-9-9-7H9----9-10-7-7-----
 G-7H9-------7H9--------------7H9--------------------------9-----
Nunca use chaqueta de cuero
Le queda bien siempre alos finteros

Derroques en mi corazon

En esa lagrima o en esa cancion
  Si gue el coro Coro?..

Ya no aguanto tus palabras
Para el alma para el karma
Donde as dejado hoy su cruz
Busca el monte ala serpiente
Busca el hombre ala corriente

SOLO:
 E----------19-19-19-19-------------19h21-19-19-17-16-14-12--
 B-19h21--------21------21-21h19-----------------------------
 G --------------------------------------21-----------------

 E-14-17-16-14h12-14-14h15-14h15-14h15-14h15-15-------
 B----------------------------------------------------

 E-15h14h---14-9h7-9h7-9h7-9h7-9h7-9h7-9h7--9h10-9-
 B-----------17--------9------9-----9-----9-----9-----9-----9-----------
 G----------------------------------------------------------------------

Bueno eso es todo . espero este bien . esta transcribcion  dedicada a mi
Bro ALDO espero  lleges aprender a tocar el bajo . ala people de chala . la
Gente de la Cia caravely que gusta del buen rock   cualquier comentario al
Correo  teologia666@hotmail .com  interesados en temas de deep purple  burn
Arriba el rock perucho  .

            
            
Suggest correction
Creating personal tab
Creating personal tab
You can edit any tab online and save it as your Personal.

You can edit, replace or remove any tab part or add personal notes – all changes will be seen only by you.

Personal tabs can be accessed anytime from any device, even offline.
Learn more »
Give kudos to tab author, rate the tab!
1 2 3 4 5
comments
print report bad tab
guest
Wanna post a correction for this tab? Suggest correction