Oops, an error
Loading. Please wait.

Arriving Somewhere But Not Here bass

version 2
version 2

Whole song

Interactive

3,268 views 3 this week
no commentswrite comment
1 2 3 4 5
2 more votes to show rating
add to favorites
×
Save as Personal and add changes to this tab that will be seen only by you. Learn more ›
×
You can save this tab as Personal to edit and correct it or add notes. All changes will be seen only by you. Learn more »
launch autoscroll
font size
0
reset
guitar tuner
backing track
0:00
0:00
edit
Autoscroll
slow
fast
+/-
esc
set tempo
stop
#----------------------------------PLEASE NOTE---------------------------------#
#This file is the author's own work and represents their interpretation of the #
#song. You may only use this file for private study, scholarship, or research. #
#------------------------------------------------------------------------------#

ARRIVING SOMEWHERE, BUT NOT HERE (Bassline)
As recorded by Porcupine Tree
(From the 2005 Album DEADWING)

Transcribed by Erik Dietrich
	

Words and Music by Steven Wilson

Gtr I (D A D G) - 'Untitled'

 Intro
  Q=80
 4/4
  Gtr I
  Wx16
|---------|
|---------|
|---------|
|---------|


  W            +W         11x W          +W           W          +W
|----------||--------------||----------|------------|----------|--------|
|----------||o------------o||----------|------------|----------|--------|
|----------||o------------o||-1--------|-(1)--------|-5--------|-(5)----|
|-0--------||--(0)---------||----------|------------|----------|--------|


  Q=161
  W          +W           +W           +W
|----------|------------|------------|--------|
|----------|------------|------------|--------|
|----------|------------|------------|--------|
|-0--------|-(0)--------|-(0)--------|-(0)----|


              Verse         Verse 2
  Wx9          Wx32          Wx19          H    E Q  +E
|------------|-------------|-------------|----------------|
|------------|-------------|-------------|----------------|
|------------|-------------|-------------|--------3--(3)s=|
|------------|-------------|-------------|----------------|


  W          +H.      Q    W          +H     Q.   +E
|----------|-------------|----------|------------------|
|----------|-------------|----------|------------------|
|-5--------|-(5)---------|-5--------|-(5)----5----(5)s=|
|----------|-------------|----------|------------------|


  W          +H     Q.   +E     W           +H      H
|----------|-----------------|-----------|---------------|
|----------|-----------------|-----------|---------------|
|-8--------|-(8)----8----(8)s|=13--------|-(13)----13----|
|----------|-----------------|-----------|---------------|


   W           +W           W          +W
|-----------|-------------|----------|--------|
|-----------|-------------|----------|--------|
|-12--------|-(12)--------|----------|--------|
|-----------|-------------|-0--------|-(0)----|


 Chorus
  W          +H     Q.   +E    W          +W
|----------|-----------------|----------|--------|
|----------|-----------------|----------|--------|
|-1--------|-(1)----1----(1)s|=3--------|-(3)----|
|----------|-----------------|----------|--------|


  W          +W           +W           +H      Q.    +E
|----------|------------|------------|--------------------|
|-5--------|-(5)--------|-(5)--------|-(5)----------------|
|----------|------------|------------|--------10----(10)s=|
|----------|------------|------------|--------------------|


  W          +H.       Q     W          +W
|----------|---------------|----------|--------|
|----------|---------------|----------|--------|
|-1--------|-(1)------(1)s=|=3--------|-(3)----|
|----------|---------------|----------|--------|


  W          +H.      E E   W          +Q   Q  Q  Q
|----------|--------------|-4--------|-(4)--5--4------|
|-5--------|-(5)------5-7-|----------|------------5\--|
|----------|--------------|----------|----------------|
|----------|--------------|----------|----------------|


  W          +H.       Q     W          +H     H
|----------|---------------|----------|--------------|
|----------|---------------|----------|--------------|
|-1--------|-(1)------(1)s=|=3--------|-(3)----3\----|
|----------|---------------|----------|--------------|


 Guitar Solo
  Q.   E +E  E Q    Q.   E +E  E Q    Q.   E +E  E Q    E E E E +E  E E E
|-----------------|-----------------|-----------------|-------------------|
|-----------------|-----------------|------------3----|-----3-------------|
|-1----1-(1)-1----|-1----1-(1)-1----|-1----1-(1)---1--|-1-1---1-(1)---1---|
|--------------3--|--------------3--|-----------------|-------------3---0-|


  E Q  E +E  E Q    E Q  E +E  E Q    E Q  E +E  E Q    E Q  E +E  E Q
|-----------------|-----------------|-----------------|-----------------|
|-----------------|-----------------|-----------------|-----------------|
|-3s5--5-(5)-5----|-3s5--5-(5)-5----|-3s5--5-(5)-5----|-3s5--5-(5)---3--|
|--------------0--|--------------0--|--------------0--|------------0----|


  Q.   E +E  E Q    Q.   E +E  E Q    Q.   E +E  E Q    Q.   E +E  E E E
|-----------------|-----------------|-----------------|------------------|
|-----------------|------3-(3)-3----|-----------------|------------------|
|-1----1-(1)-1----|-1------------1--|-1----1-(1)-1----|-1----1-(1)---3---|
|--------------3--|-----------------|--------------3--|------------0---0-|


  E Q  E +E  E Q    E Q  E +E  E Q    E Q  E +E  E E E   E E E E E E Q
|-----------------|-----------------|------------------|----------------|
|-----------------|-----------------|------------------|-3-3------------|
|-3s5--5-(5)-5----|-3s5--5-(5)-5----|-3s5--5-(5)---3s5-|-----5-3-5-5----|
|--------------0--|--------------0--|------------0-----|-------------0--|


  Q.   E +E  E Q    Q.   E +E  E Q    Q.   E +E  E Q    Q.   E +E  E E E
|-----------------|-----------------|-----------------|------------------|
|-----------------|-----------------|-----------------|------------------|
|-1----1-(1)-1----|-1----1-(1)-1----|-1----1-(1)-1----|-1----1-(1)---3---|
|--------------3--|--------------3--|--------------3--|------------0---0-|


  E Q  E +E  E Q    E Q  E +E  E Q    E Q  E +E  E Q    E Q  E +E  E Q
|-----------------|-----------------|-----------------|-----------------|
|-----------------|-----------------|-----------------|-----------------|
|-3s5--5-(5)-5----|-3s5--5-(5)-5----|-3s5--5-(5)-5----|-3s5--5-(5)---3--|
|--------------0--|--------------0--|--------------0--|------------0----|


  Q.   E +E  E Q    Q.   E +E  E Q    Q.   E +E   E Q    +Q.   E +E  E Q
|-----------------|------------5----|------------10----|-------------------|
|-3----3-(3)---3--|-3----3-(3)---3--|-8----8-(8)----8--|-(8)---8-(8)-8-----|
|------------3----|-----------------|------------------|---------------8\--|
|-----------------|-----------------|------------------|-------------------|


  Q.   E +Q   E E   Q.   E +E  E E E   Q.   E +E  E Q    E Q  E +E  E Q
|-----------------|------------------|-----------------|-----------------|
|-----------------|------------------|-----------------|-----------------|
|-------------3h5-|-5----5-(5)---3h5-|-5----5-(5)---3--|-3s5--5-(5)---3--|
|-0----0-(0)------|------------0-----|------------0----|------------0----|


 Verse 3
  Q.   E +E  E Q    Q.   E +E  E Q    Q.   E +E  E Q    Q.   E +E  E E E
|-----------------|-----------------|-----------------|------------------|
|-----------------|------------3----|-----------------|------------------|
|-1----1-(1)-1----|-1----1-(1)---1--|-1----1-(1)-1----|-1----1-(1)---1---|
|--------------3--|-----------------|--------------3--|------------3---0-|


  E Q  E +E  E Q    E Q  E +E  E Q    E Q  E +E  E Q    E Q  E +E  E Q
|-----------------|-----------------|-----------------|-----------------|
|-----------------|-----------------|-----------------|-----------------|
|-3s5--5-(5)-5----|-3s5--5-(5)-5----|-3s5--5-(5)-5----|-3s5--5-(5)---3--|
|--------------0--|--------------0--|--------------0--|------------0----|


  Q.   E +E  E Q    Q.   E +E  E Q    Q.   E +E  E Q    Q.   E +E  E E E
|-----------------|-----------------|-----------------|------------------|
|-----------------|-----------------|------------3----|------------------|
|-1----1-(1)-1----|-1----1-(1)-1----|-1----1-(1)---1--|-1----1-(1)---1---|
|--------------3--|--------------3--|-----------------|------------3---0-|


  E Q  E +E  E Q    E Q  E +E  E E E   E Q  E +E  E Q    E E E E +E  E E E
|-----------------|------------------|-----------------|-------------------|
|-----------------|------------------|-----------------|-------------------|
|-3s5--5-(5)-5----|-3s5--5-(5)---3h5-|-3s5--5-(5)-5----|-3-5-5-5-(5)---3---|
|--------------0--|------------0-----|--------------0--|-------------0---0-|


  Q.   E +E  E Q    Q.   E +E  E Q    Q.   E +E  E Q    Q.   E +E  E E E
|-----------------|-----------------|-----------------|------------------|
|-----------------|-----------------|-----------------|------------------|
|-1----1-(1)-1----|-1----1-(1)-1----|-1----1-(1)-1----|-1----1-(1)---1---|
|--------------3--|--------------3--|--------------3--|------------3---0-|


  E Q  E +E  E Q    E Q  E +E  E Q    E Q  E +E  E Q    E Q  E +E  E Q
|-----------------|-----------------|-----------------|-----------------|
|-----------------|-----------------|-----------------|-----------------|
|-3s5--5-(5)-5----|-3s5--5-(5)-5-3--|-3s5--5-(5)-5----|-3s5--5-(5)---3--|
|--------------0--|-----------------|--------------0--|------------0----|


  Q.   E +E  E Q    +Q.   E +E  E Q     Q.   E +E  E Q    E  Q  E +Q   E E
|------------5----|-------------5-----|-----------------|------------------|
|-3----3-(3)---3--|-(3)---3-(3)---3/--|-8----8-(8)---8--|-8h10--8-(8)------|
|-----------------|-------------------|------------8----|--------------8---|
|-----------------|-------------------|-----------------|----------------0-|


  E Q  E +E  E Q    E Q  E +E  E Q    E Q  E +E  E +Q     E Q  E +E  E E E
|-----------------|-----------------|-------------------|------------------|
|-----------------|-----------------|-------------------|------------------|
|-3s5--5-(5)-5----|-3s5--5-(5)-5----|-3s5--5-(5)--------|-3s5--5-(5)---3---|
|--------------0--|--------------0--|------------0-(0)--|------------0---0-|


 Chorus
  Q.   E +E  E Q    Q.   E +E  E E E   Q.   E +E  E Q    Q.   E +E  E Q
|-----------------|------------------|-----------------|-----------------|
|-----------------|------------3-----|-----------------|------5-(5)------|
|-1----1-(1)---1--|-1----1-(1)---1---|-3----3-(3)---3--|-3---------------|
|------------3----|----------------3-|------------5----|------------0-3--|


  Q.   E +E  E Q    E Q  E +E  E Q    Q.   E +E  E Q    Q.   E +E  E Q
|-----------------|-----------------|-----------------|-----------------|
|-----------------|-----------------|-----------------|-----------------|
|-----------------|-----------------|-----------------|-----------------|
|-5----5-(5)-5-5--|-5-5--5-(5)-0-5--|-5----5-(5)-0-0--|-5----5-(5)-0-5--|


  Q.   E +E  E Q    Q.   E +Q   Q    Q.   E +E  E Q    E Q  E +E  E Q
|-----------------|----------------|-----------------|-----------------|
|------------3----|------3-(3)-----|------------5----|-----------------|
|-1----1-(1)---1--|-1--------------|-3----3-(3)---3--|-3-3--3-(3)------|
|-----------------|-------------3--|-----------------|------------0-3--|


  Q.   E +Q   Q    Q.   E +E  E Q    Q.   E +E  E Q    E Q  E +E  E Q
|----------------|-----------------|-----------------|-----------------|
|----------------|-----------------|-----------------|-----------------|
|----------------|-----------------|-----------------|-----------------|
|-5----5-(5)--5--|-5----5-(5)-0-5--|-5----5-(5)-0-0--|-3s5--5-(5)-0-3--|


  Q.   E +E  E Q    Q.   E +E  E E E   Q.   E +E  E Q    Q.   E +E  E E E
|-----------------|------------------|-----------------|------------------|
|------------3----|------------------|-----------------|------------------|
|-1----1-(1)---1--|-1----1-(1)---1---|-3----3-(3)---3--|-3----3-(3)-------|
|-----------------|------------3---0-|------------5----|------------5-5-5-|


 Bridge 1
  W            +W          3x Wx12
|----------||--------------||---------|
|----------||o------------o||---------|
|----------||o------------o||---------|
|-0--------||--(0)---------||---------|


                      1.,2.
    E E E E E E E E   E E E E E E E E
||------------------|------------------||
||o-----------------|-----------------o||
||o-3h5-5-5-5-5-5-5-|-5-5-5-5-5-5-5-5-o||
||------------------|------------------||


  3.
  E E E E E E E E   E E E E E E E E   E E E E E E E E
|-----------------|-----------------|-------------------|
|-----------------|-----------------|-------------------|
|-5-5-5-5-5-5-5-0-|-3h5-5-5-5-5-5-5-|-5-5-5-5-5-5-5-5---|
|-----------------|-----------------|-------------------|


  E E E E E E E E   E E E E E E E E   E E E E E E E E   E E E E E E E E
|-5h7-7-7-7-7-7-7-|-7-7-7-7-7-6-5---|-5h7-7-6-6-6-5-5-|-5---------------|
|-----------------|---------------7-|-----------------|---7-7-7-6-5-----|
|-----------------|-----------------|-----------------|-------------8-5-|
|-----------------|-----------------|-----------------|-----------------|


  E E E E E E E E   E E E E E E E E   E E E E E E E E   E E E E E E E E
|-----------------|-----------------|-----------------|-----------------|
|-----------------|-----------------|-----------------|-----------------|
|-3h5-5-5-5-5-5-5-|-5-5-5-5-5-5-5-0-|-3h5-5-5-5-5-5-5-|-8-5-5-8-5-5-8-5-|
|-----------------|-----------------|-----------------|-----------------|


 Bridge 2
  Q  E E E E E E   E E E E E E E E   E E E E E E E E   E S S E E E E E E
|----------------|-----------------|-----------------|-------------------|
|----------------|-----------------|-----------------|-----------6-------|
|----------------|-----------------|-----------------|---------6---6-----|
|-0----0-1p0---0-|---0---0-1p0-1p0-|---0---0-1p0---0-|---0h6h7-------7-6-|


    E E E E E E E E   E E E E E E E E   E E E E E E E E   E S S E E E E E E  3x
||------------------|-----------------|-----------------|--------------------||
||o-----------------|-----------------|-----------------|-----------6-------o||
||o-----------------|-----------------|-----------------|---------6---6-----o||
||----0---0-1p0---0-|---0---0-1p0-1p0-|---0---0-1p0---0-|---0h6h7-------7-6--||


   Bridge 3
    E E E E E E E E   E E +E  S S E E E E
||------------------|---------------------|
||o-----------------|---------------------|
||o-----6---5-5---6-|---5-(5)-------------|
||--0-0---0---------|---------0-0-0-0-0-0-|


  E E E E E E E E   E E +E  S S E E E E
|-----------------|----------------------|
|-----------------|----------------------|
|-----6---5-5---6-|---5-(5)-----5-6-5----|
|-0-0---0---------|---------6h7-------6--|


                                                                        ~~
  E E E E E E E E   E E +E  S S E E E E   E E E E Q  E E   E E E E E E  Q
|-----------------|---------------------|----------------|-------------10---||
|-----------------|---------------------|----------------|---7-6-----9-----o||
|-----6---5-5---6-|---5-(5)-------------|-----6---5----0-|-8-----7-8-------o||
|-0-0---0---------|---------0-0-0-0-0-0-|-0-0---0--------|------------------||


   Bridge 4
    E E E E E E E E   E E E E E E E E   E E E E E E E E   E E E E E E E E
||------------------|-----------------|-----------------|---------5-5-7-7---||
||o-----------------|-----------------|-------5-5-5-6-6-|-6-7-7-7----------o||
||o-5-5-5-----------|---------3-3-5-5-|-8-8-8-----------|------------------o||
||--------5-5-5-6-6-|-6-7-7-7---------|-----------------|-------------------||


  E E E E E E E E   E E E E E E E E   E E E E E E E E   E E E E E E E E
|-7-7-7-7-7-7-7-7-|-7-7-7-7-7-6-5---|-7-7-7-6-6-6-5-5-|-5---------------|
|-----------------|---------------7-|-----------------|---7-7-7-6-5-----|
|-----------------|-----------------|-----------------|-------------8-5-|
|-----------------|-----------------|-----------------|-----------------|


  E E E E +E  E E E   E E E E E E E E   E E E E E E E E   E E E E E E E E
|-------------------|-----------------|-----------------|---------5-5-7-7-|
|-------------------|-----------------|-------5-5-5-6-6-|-6-7-7-7---------|
|-3h5-5-------------|---------3-3-5-5-|-8-8-8-----------|-----------------|
|-------5-(5)-5-6-6-|-6-7-7-7---------|-----------------|-----------------|


 Verse Riff
  E E E E E E E E   E E E E E E E E   E E E E E E E E   E E E E E E E E
|-----------------|-----------------|-----------------|-----------------|
|-----------------|-----------------|-----------------|-----------------|
|-1-1-1-1-1-1-1-1-|-1-1-1-1-1-1-1-1s|=5-5-5-5-5-5-5-5-|-5-5-5-5-5-5-5-5-|
|-----------------|-----------------|-----------------|-----------------|


  E E E E E E E E   E E E E E E E E   E E E E E E E E   E E E E E E E E
|-----------------|-----------------|-----------------|-----------------|
|-3-3-3-3-3-3-3-3-|-3-3-3-3-3-3-3-3-|-7-7-7-7-7-7-7-7-|-7-7-7-7-7-7-7-7-|
|-----------------|-----------------|-----------------|-----------------|
|-----------------|-----------------|-----------------|-----------------|


  E E E E E E E E   E E E E E E E E
|-----------------|-----------------|
|-8-8-8-8-8-8-8-8-|-8-8-8-8-8-8-8-8s|
|-----------------|-----------------|
|-----------------|-----------------|


   E  E  E  E  E  E  E  E    E  E  E  E  E  E  E  E
|-------------------------|-------------------------|
|-12-12-12-12-12-12-12-12-|-12-12-12-12-12-12-12-12-|
|-------------------------|-------------------------|
|-------------------------|-------------------------|


   E  E  E  E  E  E  E  E    E  E  E  E  E  E  E  E
|-------------------------|-------------------------|
|-15-15-15-15-15-15-15-15-|-15-15-15-15-15-15-15-15-|
|-------------------------|-------------------------|
|-------------------------|-------------------------|


   E  E  E  E  E  E  E  E    E  E  E  E  E  E  E  E
|-------------------------|-------------------------|
|-14-14-14-14-14-14-14-14-|-12-12-12-12-12-12-12-12-|
|-------------------------|-------------------------|
|-------------------------|-------------------------|


   E  E  E  E  E  E  E  E    E  E  E  E  E  E  E  E
|-14-------15-------14----|----15-------14----15----|
|----12-12----12-12----12-|-12----12-12----12----12-|
|-------------------------|-------------------------|
|-------------------------|-------------------------|


   E  E  E  E  E  E  E  E    E  E  E  E  E  E  E  E
|-14-------15-------14----|----15-------14----15----|
|----12-12----12-12----12-|-12----12-12----12----12-|
|-------------------------|-------------------------|
|-------------------------|-------------------------|


   E  E  E  E  E  E  E  E    E  E  E  E  E  E  E  E
|-14-------15-------14----|----15-------14----15----|
|----12-12----12-12----12-|-12----12-12----12----12-|
|-------------------------|-------------------------|
|-------------------------|-------------------------|


   E  E  E  E  E  E  E  E    E  E  E  E  E  E  E  E
|-14----15----14----15----|-14----15----14----15----|
|----12----12----12----12-|----12----12----12----12-|
|-------------------------|-------------------------|
|-------------------------|-------------------------|


 Mikael Akerfeldt Solo
  Q=80
  Wx20
|---------|
|---------|
|---------|
|---------|


 Verse 4
  Q=161
  Q.   E +E  E Q    Q.   E +E  E Q    Q.   E +E  E Q    E E E E +E  E E E
|-----------------|-----------------|-----------------|-------------------|
|-----------------|-----------------|------3-(3)------|-----3-------------|
|-1----1-(1)-1----|-1----1-(1)-1----|-1----------1----|-1-1---1-(1)---1---|
|--------------3--|--------------3--|--------------3--|-------------3---0-|


  E Q  E +E  E Q    E Q  E +E  E Q    E Q  E +E  E Q    E Q  E +E  E Q
|-----------------|-----------------|-----------------|-----------------|
|-----------------|-----------------|-----------------|-----------------|
|-3s5--5-(5)-5----|-3s5--5-(5)-5----|-3s5--5-(5)-5----|-3s5--5-(5)---3--|
|--------------0--|--------------0--|--------------0--|------------0----|


  Q.   E +E  E Q    Q.   E +E  E Q    Q.   E +E  E Q    E E E E +E  E E E
|-----------------|-----------------|-----------------|-------------------|
|-----------------|-----------------|------3-(3)------|-----3-------------|
|-1----1-(1)-1----|-1----1-(1)-1----|-1----------1----|-1-1---1-(1)---3---|
|--------------3--|--------------3--|--------------3--|-------------3---0-|


  E Q  E +E  E Q    E Q  E +E  E Q    E Q  E +E  E Q    E Q  E +E  E E E
|-----------------|-----------------|-----------------|------------------|
|-----------------|-----------------|-----------------|------------------|
|-3s5--5-(5)-5----|-3s5--5-(5)-5----|-3s5--5-(5)-5----|-3s5--5-(5)---3---|
|--------------0--|--------------0--|--------------0--|------------0---0-|


  E Q  E +E  E Q    Q.   E +E  E Q    Q.   E +E  E Q    Q.   E +E  E E E
|-----------------|-----------------|-----------------|------------------|
|-----------------|-----------------|-----------------|------------------|
|-1-1--1-(1)-1----|-1----1-(1)-1----|-1----1-(1)-1----|-1----1-(1)---3---|
|--------------3--|--------------3--|--------------3--|------------0---0-|


  E Q  E +E  E Q    E Q  E +E  E Q    E Q  E +E  E Q    E Q  E +E  E Q
|-----------------|-----------------|-----------------|-----------------|
|-----------------|-----------------|-----------------|-----------------|
|-3s5--5-(5)-5----|-3s5--5-(5)-5----|-3s5--5-(5)-5----|-3s5--5-(5)---3--|
|--------------0--|--------------0--|--------------0--|------------0----|


  Q.   E +E  E Q    Q.   E +E  E Q     Q.   E +E  E E E   E  E E E E E E E
|-----------------|------------5-----|------------------|---10-------------|
|-3----3-(3)---3--|-3----3-(3)---3/--|-8----8-(8)---8p7-|-8----8p7---7-----|
|------------3----|------------------|------------------|----------8---8---|
|-----------------|------------------|------------8-----|----------------8-|


  E Q  E +E  E Q    E E E E +E  E E E   Q.   E +E  E Q    E E E E +E  E E E
|-----------------|-------------------|-----------------|-------------------|
|-----------------|-----3-------------|-----------------|-----3-------------|
|-3s5--5-(5)-5----|-3s5---5-(5)---3s5-|-5----5-(5)-5----|-3s5---5-(5)---3---|
|--------------0--|-------------0-----|--------------0--|-------------0---0-|


 Outro
  Q.   E +E  E Q    Q.   E +E  E Q    Q.   E +E  E Q    Q  E E +E  E E E
|-----------------|-----------------|-----------------|------------------|
|-----------------|------3-(3)------|-----------------|-3--3-------------|
|-1----1-(1)-1----|-1----------1----|-1----1-(1)---1--|------1-(1)---1---|
|--------------3--|--------------3--|------------3----|------------3---0-|


  E Q  E +E  E Q    E Q  E +E  E Q    E Q  E +E  E Q    E Q  E +E  E Q
|-----------------|-----------------|-----------------|-----------------|
|-----------------|-----------------|-----------------|-----------------|
|-3s5--5-(5)-5----|-3s5--5-(5)-5----|-3s5--5-(5)-5----|-3s5--5-(5)---3--|
|--------------0--|--------------0--|--------------0--|------------0----|


  E Q  E +E  E Q    Q.   E +E  E Q    Q.   E +E  E Q    Q.   E +E  E E E
|-----------------|-----------------|-----------------|------------------|
|-----------------|-----------------|------------3----|------------------|
|-1-1--1-(1)-1----|-1----1-(1)-1----|-1----1-(1)---1--|-1----1-(1)---1---|
|--------------3--|--------------3--|-----------------|------------3---0-|


  E Q  E +E  E Q    E Q  E +E  E E E   E Q  E +E  E Q    E Q  E +E  E E E
|-----------------|------------------|-----------------|------------------|
|-----------------|------------------|-----------------|------------------|
|-3s5--5-(5)-5----|-3s5--5-(5)---3s5-|-3s5--5-(5)-5----|-3s5--5-(5)---3---|
|--------------0--|------------0-----|--------------0--|------------0---0-|


  E Q  E +E  E Q    Q.   E +E  E Q    Q.   E +E  E Q    Q.   E +E  E E E
|-----------------|-----------------|-----------------|------------------|
|-----------------|-----------------|-----------------|------3-(3)-------|
|-1-1--1-(1)-1----|-1----1-(1)-1----|-1----1-(1)-1----|-1------------1---|
|--------------3--|--------------3--|--------------3--|------------3---0-|


  E Q  E +E  E Q    E Q  E +E  E Q    E Q  E +E  E Q    E Q  E +E  E Q
|-----------------|-----------------|-----------------|-----------------|
|-----------------|-----------------|-----------------|-----------------|
|-3s5--5-(5)-5----|-3s5--5-(5)-5----|-3s5--5-(5)-5----|-3s5--5-(5)---3--|
|--------------0--|--------------0--|--------------0--|------------0----|


  Q.   E +E  E Q    Q.   E +E  E Q    Q.   E +E   E Q    +E  E  E E E E E E
|------------5----|------------5----|------------10----|-------10-----------|
|-3----3-(3)---3--|-3----3-(3)---3s=|=8----8-(8)----8--|-(8)-8----8p7---7---|
|-----------------|-----------------|------------------|--------------8-----|
|-----------------|-----------------|------------------|------------------8-|


  E Q  E +E  E Q    E Q  E +E  E Q    E Q  E +E  E +Q     E Q  E +E  E E E
|-----------------|-----------------|-------------------|------------------|
|-----------------|-----------------|-------------------|------------------|
|-3s5--5-(5)-5----|-3s5--5-(5)-5----|-3s5--5-(5)--------|-3s5--5-(5)---3---|
|--------------0--|--------------0--|------------0-(0)--|------------0---0-|


  Q.   E +E  E Q    Q.   E +E  E Q    E E E E +E  E Q    E E E E +E  E E E
|-----------------|-----------------|------------------|-------------------|
|-----------------|-----------------|-----3------------|-------------------|
|-1----1-(1)-1----|-1----1-(1)-1----|-1-1---1-(1)---1--|-1-1---1-(1)---1---|
|--------------3--|--------------3--|-------------3----|-----3-------3---0-|


  E Q  E +E  E Q    E Q  E +E  E Q    E Q  E +E  E Q    E Q  E +E  E E E
|-----------------|-----------------|-----------------|------------------|
|-----------------|-----------------|-----------------|------------------|
|-3s5--5-(5)-5----|-3s5--5-(5)-5----|-3s5--5-(5)-5----|-3s5--5-(5)---3---|
|--------------0--|--------------0--|--------------0--|------------0---0-|


  Q.   E +E  E Q    Q.   E +E  E Q    E E E E +E  E Q    E Q  E +E  E E E
|-----------------|-----------------|------------------|------------------|
|-----------------|-----------------|-----3------------|------------------|
|-1----1-(1)-1----|-1----1-(1)-1----|-1-1---1-(1)---1--|-1-1--1-(1)---1---|
|--------------3--|--------------3--|-------------3----|------------3---0-|


  E E E E +E  E E E   E Q  E +E  E Q    E Q  E +E  E Q    E Q  E +E  E Q
|-------------------|-----------------|-----------------|-----------------|
|-----3-------------|-----------------|-----------------|-----------------|
|-3s5---5-(5)---3s5-|-3s5--5-(5)-5----|-3s5--5-(5)-5----|-3s5--5-(5)-5----|
|-------------0-----|--------------0--|--------------0--|--------------0--|


  Q.   E +E  E Q    Q.   E +E  E Q    Q.   E +E  E Q    Q.   E +E  E E E
|-----------------|-----------------|-----------------|------------------|
|-----------------|-----------------|-----------------|------------------|
|-1----1-(1)-1----|-1----1-(1)-1----|-1----1-(1)---1--|-1----1-(1)---1---|
|--------------3--|--------------3--|------------3----|------------3---0-|


  E Q  E +E  E Q    E Q  E +E  E Q    E Q  E +E  E Q    E Q  E +E  E Q
|-----------------|-----------------|-----------------|-----------------|
|-----------------|-----------------|-----------------|-----------------|
|-3s5--5-(5)-5----|-3s5--5-(5)-5----|-3s5--5-(5)-5----|-3s5--5-(5)-5----|
|--------------0--|--------------0--|--------------0--|--------------0--|


  Q.   E +E  E Q    Q.   E +E  E Q     Q.   E +E  E E E   E  E E E E E E E
|-----------------|------------5-----|------------------|---10-------------*|
|-3----3-(3)---3--|-3----3-(3)---3/--|-8----8-(8)---8p7-|-8----8p7---7-----*|
|------------3----|------------------|------------------|----------8---8---*|
|-----------------|------------------|------------8-----|----------------8-*|



Duration Legend
---------------
W - whole; H - half; Q - quarter; E - 8th; S - 16th; T - 32nd; X - 64th; a - acciaccatura
+ - note tied to previous; . - note dotted; .. - note double dotted
Uncapitalized letters represent notes that are staccato (1/2 duration)
Irregular groupings are notated above the duration line
Duration letters will always appear directly above the note/fret number it represents the
duration for.  Duration letters with no fret number below them represent rests.  Multi-
bar rests are notated in the form Wxn, where n is the number of bars to rest for.  Low
melody durations appear below the staff

Tablature Legend
----------------
 h   - hammer-on
 p   - pull-off
 b   - bend
 pb  - pre-bend
 r   - bend release (if no number after the r, then release immediately)
 /\  - slide into or out of (from/to "nowhere")
 s   - legato slide
 S   - shift slide
 - natural harmonic
[n]  - artificial harmonic
n(n) - tapped harmonic
 ~   - vibrato
 tr  - trill
 T   - tap
 TP  - trem. picking
 PM  - palm muting
\n/  - tremolo bar dip; n = amount to dip
 \n  - tremolo bar down
 n/  - tremolo bar up
/n\  - tremolo bar inverted dip
 =   - hold bend; also acts as connecting device for hammers/pulls
 <> - volume swell (louder/softer)
 x   - on rhythm slash represents muted slash
 o   - on rhythm slash represents single note slash

Misc Legend
-----------
 |  - bar
||  - double bar
||o - repeat start
o|| - repeat end
*|  - double bar (ending)
 :  - bar (freetime)
 $  - Segno
 &  - Coda
Tempo markers -  = BPM(8/16=s8/s16), where s8 = swing 8ths, s16 = swing 16ths


            
            
Suggest correction
Creating personal tab
Creating personal tab
You can edit any tab online and save it as your Personal.

You can edit, replace or remove any tab part or add personal notes – all changes will be seen only by you.

Personal tabs can be accessed anytime from any device, even offline.
Learn more »
Give kudos to tab author, rate the tab!
1 2 3 4 5
comments
print report bad tab
guest
You may want to rate the tab now too:
select rating
Wanna post a correction for this tab? Suggest correction