Oops, an error
Loading. Please wait.

Arriving Somewhere But Not Here tab

version 1
version 1

Whole song

Interactive

58,019 views 96 this week
4 commentsread comments
1 2 3 4 5
x 12
add to favorites
×
Save as Personal and add changes to this tab that will be seen only by you. Learn more ›
×
You can save this tab as Personal to edit and correct it or add notes. All changes will be seen only by you. Learn more »
launch autoscroll
font size
0
reset
how to read this tab
guitar tuner
backing track
0:00
0:00
edit
Autoscroll
slow
fast
+/-
esc
set tempo
stop
#----------------------------------PLEASE NOTE---------------------------------#
#This file is the author's own work and represents their interpretation of the #
#song. You may only use this file for private study, scholarship, or research. #
#------------------------------------------------------------------------------#

ARRIVING SOMEWHERE, BUT NOT HERE
As recorded by Porcupine Tree
(From the 2005 Album DEADWING)

Transcribed by Erik Dietrich
	

Words and Music by Steven Wilson

Bbsus2
x 1 3 3 1 1
	
G
x x 5 4 3 x
	
C/G
x x 5 5 5 x
	
D5
x x 0 2 3 x

Gtr I (D A D G B E) - 'C'
Gtr II (D A D G B E) - 'R'
Gtr III (D A D G B E) - 'L'
Gtr IV (D A D G B E) - 'Acoustic'
Gtr V (D A D G B E) - 'Distorted Lead'
Gtr VI (D A D G B E) - 'Distorted Center'

 Intro
  Q=80
 4/4
  Gtr I
  Wx8
|--------|
|--------|
|--------|
|--------|
|--------|
|--------|


  N.C.
   Q    Q    Q    Q      +W             Q    Q    Q    Q      +W
|---------------------|--------------|---------------------|----------|
|---------------------|--------------|---------------------|----------|
|---------------------|--------------|---------------------|----------|
|-[2]--[2]--[2]--[2]--|-([2])--------|---------------------|----------|
|---------------------|--------------|-<5>--<5>--<5>--<5>--|-(<5>)----|
|---------------------|--------------|---------------------|----------|


    Q     Q     Q     Q       +W             Q    Q    Q    Q      +W
|-------------------------|---------------|---------------------|----------|
|-------------------------|---------------|---------------------|----------|
|-------------------------|---------------|---------------------|----------|
|-<12>--<12>--<12>--<12>--|-(<12>)--------|---------------------|----------|
|-------------------------|---------------|-<5>--<5>--<5>--<5>--|-(<5>)----|
|-------------------------|---------------|---------------------|----------|


   Q    Q    Q    Q      +W             Q    Q    Q    Q      +W
|---------------------|--------------|---------------------|----------|
|---------------------|--------------|---------------------|----------|
|---------------------|--------------|---------------------|----------|
|-[2]--[2]--[2]--[2]--|-([2])--------|---------------------|----------|
|---------------------|--------------|-<5>--<5>--<5>--<5>--|-(<5>)----|
|---------------------|--------------|---------------------|----------|


  Gtr III
    W                          W
|-------------------------|---------------|
|-------------------------|---------------|
|-------------------------|---------------|
|-------------------------|---------------|
|-------------------------|---------------|
|-------------------------|---------------|
|
| Gtr I
|   Q     Q     Q     Q       +W
|-------------------------|---------------|
|-------------------------|---------------|
|-------------------------|---------------|
|-<12>--<12>--<12>--<12>--|-(<12>)--------|
|-------------------------|---------------|
|-------------------------|---------------|


   W                      H.       E.  S
|---------------------|------------------|
|---------------------|---------------10-|
|---------------------|------------------|
|---------------------|------------------|
|---------------------|------------------|
|---------------------|------------------|
|
|  Q    Q    Q    Q      +W
|---------------------|------------------|
|---------------------|------------------|
|---------------------|------------------|
|---------------------|------------------|
|-<5>--<5>--<5>--<5>--|-(<5>)------------|
|---------------------|------------------|


   +H         H           +E    Q.    +H
|----------------------|---------------------|
|-(10)h======11--------|-(11)p=10----(10)p===|
|----------------------|---------------------|
|----------------------|---------------------|
|----------------------|---------------------|
|----------------------|---------------------|
|
|   Q    Q    Q    Q      +W
|----------------------|---------------------|
|----------------------|---------------------|
|----------------------|---------------------|
|--[2]--[2]--[2]--[2]--|-([2])---------------|
|----------------------|---------------------|
|----------------------|---------------------|


   Q    E.  S +Q    Q      +H      +E. S E E
|-----------------------|--------------------|
|--8h==10--\5-(5)h==6---|--(6)-----(6)-5h6p5-|
|-----------------------|--------------------|
|-----------------------|--------------------|
|-----------------------|--------------------|
|-----------------------|--------------------|
|
|  Q    Q      Q    Q      +W
|-----------------------|--------------------|
|-----------------------|--------------------|
|-----------------------|--------------------|
|-----------------------|--------------------|
|-<5>--<5>----<5>--<5>--|-(<5>)--------------|
|-----------------------|--------------------|


  Gtr II
    |--3--|   |--3--|
    E   E E   E   E E   H              S   E. +Q   Q  Q
|---------------------------------|----------------------|
|---8--10p8---6--10p6---5---------|----6p==5--(5)--2--3--|
|---------------------------------|----------------2--0--|
|---------------------------------|----------------------|
|---------------------------------|----------------------|
|---------------------------------|----------------------|
|
| Gtr III
|  +W                                  W
|---------------------------------|----------------------|
|--(5)----------------------------|----------------------|
|---------------------------------|----------------------|
|---------------------------------|----------------------|
|---------------------------------|----------------------|
|---------------------------------|----------------------|
|
| Gtr I
|   Q         Q         Q     Q       +W
|---------------------------------|----------------------|
|---------------------------------|----------------------|
|---------------------------------|----------------------|
|-<12>------<12>------<12>--<12>--|-(<12>)---------------|
|---------------------------------|----------------------|
|---------------------------------|----------------------|


   W                         +W
|--1----------------------|--(1)---------------------------------|
|-------------------------|--------------------------------------|
|-------------------------|--------------------------------------|
|-------------------------|--------------------------------------|
|-------------------------|--------------------------------------|
|-------------------------|--------------------------------------|
|
|                             |---3---|       |--3---|  |--3--|
|  H         E    E  +Q      +E    E  E  Q   +E   E  E  E  E  E
|-------------------------|--------------------------------------|
|-------------------------|--------------------------------------|
|---------------/14-(14)--|-(14)h=15p14-12--(12)h14h15-17-14h15--|
|-------------------------|--------------------------------------|
|-------------------------|--------------------------------------|
|-------------------------|--------------------------------------|
|
|  Q    Q    Q        Q      +W
|-------------------------|--------------------------------------|
|-------------------------|--------------------------------------|
|-------------------------|--------------------------------------|
|-------------------------|--------------------------------------|
|-<5>--<5>--<5>------<5>--|-(<5>)--------------------------------|
|-------------------------|--------------------------------------|


  Q=161
  Dsus2
  Gtr IV
   Q  E E +E  Q.       Q   E E +E  Q.       Q     E    E  +E  Q.
|-------0-(0)------|---------0-(0)------|--------------0--(0)-----------|
|-------------3----|---------------3----|---------------------3---------|
|-----2------------|-------2------------|---------2---------------------|
|--0---------------|---0----------------|---0---------------------------|
|------------------|--------------------|-------------------------------|
|------------------|--------------------|-------------------------------|
|
| Gtr III
|                                           |---3----|
|  W                  +W                   +Q   Q    Q    +Q.      S  S
|------------------|--------------------|-------------------------------|
|-10---------------|-(10)---------------|-(10)h11h==13---(13)-----11p10-|
|------------------|--------------------|-------------------------------|
|------------------|--------------------|-------------------------------|
|------------------|--------------------|-------------------------------|
|------------------|--------------------|-------------------------------|


   Q  E E +E  Q.       Q   E E +E  Q.       Q   E E +E  Q.
|-------0-(0)------|---------0-(0)------|---------0-(0)----------|
|-------------3----|---------------3----|---------------3--------|
|-----2------------|-------2------------|-------2----------------|
|--0---------------|---0----------------|---0--------------------|
|------------------|--------------------|------------------------|
|------------------|--------------------|------------------------|
|
|  W                  +W                   +H.              Q
|------------------|--------------------|------------------------|
|-11---------------|-(11)---------------|-(11)h============13----|
|------------------|--------------------|------------------------|
|------------------|--------------------|------------------------|
|------------------|--------------------|------------------------|
|------------------|--------------------|------------------------|


    Q   E E +E  Q.          Q  E E +E  Q.       Q   E E +E  Q.       Q   E E +E Q.
|---------0-(0)----------|-------0-(0)------|---------0-(0)------|---------0-(0)-------|
|---------------3--------|-------------3----|---------------3----|--------------3------|
|-------2----------------|-----2------------|-------2------------|-------2-------------|
|---0--------------------|--0---------------|---0----------------|---0-----------------|
|------------------------|------------------|--------------------|---------------------|
|------------------------|------------------|--------------------|---------------------|
|
|  +H.              E  E    W                  +W                   +H        Q     Q
|------------------------|------------------|--------------------|---------------------|
|-(13)-------------10h11-|-10---------------|-(10)---------------|-(10)----------------|
|------------------------|------------------|--------------------|-----------10h===12--|
|------------------------|------------------|--------------------|---------------------|
|------------------------|------------------|--------------------|---------------------|
|------------------------|------------------|--------------------|---------------------|


    Q   E E +E  Q.       Q   E E +E  Q.           Q     E E +E  Q.
|---------0-(0)------|---------0-(0)-----------|----------0-(0)-------|
|---------------3----|---------------3---------|----------------3-----|
|-------2------------|-------2-----------------|--------2-------------|
|---0----------------|---0---------------------|--0-------------------|
|--------------------|-------------------------|----------------------|
|--------------------|-------------------------|----------------------|
|
|  +W                   +H.              +E  E    E H..
|--------------------|-------------------------|----------------------|
|--------------------|-------------------------|----------------------|
|-(12)---------------|-(12)-------------(12)-9h|=10p9-----------------|
|--------------------|-------------------------|----------------------|
|--------------------|-------------------------|----------------------|
|--------------------|-------------------------|----------------------|


 Verse
  D+sus2/Bb
 4/4
   Q   E E +E   Q.                Q   E  E +E  Q.
|--------0-(0)-----------------|---------0-(0)------|
|---------------3--------------|---------------3----|
|------3-----------------------|------3-------------|
|--0---------------------------|--0-----------------|
|------------------------------|--------------------|
|------------------------------|--------------------|
|
|                                 >
| +H       +E  +S     +S  +Q     +Q   H.
|------------------------------|--------------------|
|------------------------------|--------------------|
|-(9)------(9)-(9)b10-(9)-(9)--|-(9)----------------|
|------------------------------|--------------------|
|------------------------------|--------------------|
|------------------------------|--------------------|


  Q  E E +E  Q.     Q  E E +E  Q.
|------0-(0)------|------0-(0)-------|
|------------3----|------------3-----|
|----3------------|----3-------------|
|-0---------------|-0----------------|
|-----------------|------------------|
|-----------------|------------------|
|
| W                 W
|-----------------|------------------|
|-----------------|------------------|
|-----------------|------------------|
|-----------------|------------------|
|-----------------|------------------|
|-----------------|------------------|


    Dsus2
    Gtr IV
    Q  E E +E  Q.     Q  E E +E  Q.     Q  E E +E  Q.     Q  E E +E  Q.
||-------0-(0)------|------0-(0)------|------0-(0)------|------0-(0)-------|
||o------------3----|------------3----|------------3----|------------3-----|
||-----2------------|----2------------|----2------------|----2-------------|
||--0---------------|-0---------------|-0---------------|-0----------------|
||o-----------------|-----------------|-----------------|------------------|
||------------------|-----------------|-----------------|------------------|


  D+sus2/Bb
  Q  E E +E  Q.     Q  E E +E  Q.     Q  E E +E  Q.     Q  E E +E  Q.
|------0-(0)------|------0-(0)------|------0-(0)------|------0-(0)-------||
|------------3----|------------3----|------------3----|------------3----o||
|----3------------|----3------------|----3------------|----3-------------||
|-0---------------|-0---------------|-0---------------|-0----------------||
|-----------------|-----------------|-----------------|-----------------o||
|-----------------|-----------------|-----------------|------------------||


  Dm7                                 E7b5/D
  Q  E E +E  Q.     Q  E E +E  Q.     Q  E E +E  Q.     Q  E E +E  Q.
|------5-(5)------|------5-(5)------|------5-(5)------|------5-(5)------|
|------------6----|------------6----|------------6----|------------6----|
|----5------------|----5------------|----4------------|----4------------|
|-0---------------|-0---------------|-0---------------|-0---------------|
|-----------------|-----------------|-----------------|-----------------|
|-----------------|-----------------|-----------------|-----------------|


  Fadd4/D
                                                                      |3-|
  Q  E E +E  Q.     Q  E E +E  Q.     Q  E E +E  Q.     Q  E E +E  E +Q  E
|------5-(5)------|------5-(5)------|------5-(5)------|---------------------|
|------------6----|------------6----|------------6----|------5-(5)-6-(6)s8s=|
|----3------------|----3------------|----3------------|----3----------------|
|-0---------------|-0---------------|-0---------------|-0-------------------|
|-----------------|-----------------|-----------------|---------------------|
|-----------------|-----------------|-----------------|---------------------|


   Verse 2
    Dsus2
     Q   E E +E  Q.     Q  E E +E  Q.     Q  E E +E  Q.     Q  E E +E  Q.
||---------0-(0)------|------0-(0)------|------0-(0)------|------0-(0)-------|
||o-(5)----------3----|------------3----|------------3----|------------3-----|
||-------2------------|----2------------|----2------------|----2-------------|
||---0----------------|-0---------------|-0---------------|-0----------------|
||o-------------------|-----------------|-----------------|------------------|
||--------------------|-----------------|-----------------|------------------|


  D+sus2/Bb
  Q  E E +E  Q.     Q  E E +E  Q.     Q  E E +E  Q.     Q  E E +E  Q.    3x
|------0-(0)------|------0-(0)------|------0-(0)------|------0-(0)-------||
|------------3----|------------3----|------------3----|------------3----o||
|----3------------|----3------------|----3------------|----3-------------||
|-0---------------|-0---------------|-0---------------|-0----------------||
|-----------------|-----------------|-----------------|-----------------o||
|-----------------|-----------------|-----------------|------------------||


  Dm7                                 E7b5/D
  Q  E E +E  Q.     Q  E E +E  Q.     Q  E E +E  Q.     Q  E E +E  Q.
|------5-(5)------|------5-(5)------|------5-(5)------|------5-(5)------|
|------------6----|------------6----|------------6----|------------6----|
|----5------------|----5------------|----4------------|----4------------|
|-0---------------|-0---------------|-0---------------|-0---------------|
|-----------------|-----------------|-----------------|-----------------|
|-----------------|-----------------|-----------------|-----------------|


  Fadd4/D
                                                                      |3-|
  Q  E E +E  Q.     Q  E E +E  Q.     Q  E E +E  Q.     Q  E E +E  E +Q  E
|------5-(5)------|------5-(5)------|------5-(5)------|---------------------|
|------------6----|------------6----|------------6----|------5-(5)-6-(6)s8s=|
|----3------------|----3------------|----3------------|----3----------------|
|-0---------------|-0---------------|-0---------------|-0-------------------|
|-----------------|-----------------|-----------------|---------------------|
|-----------------|-----------------|-----------------|---------------------|


  Dsus2
   Q   E E +E  Q.     Q  E E +E  Q.     Q  E E +E  Q.     Q  E E +E  Q.
|--------0-(0)------|------0-(0)------|------0-(0)------|------0-(0)------|
|-(5)----------3----|------------3----|------------3----|------------3----|
|------2------------|----2------------|----2------------|----2------------|
|--0----------------|-0---------------|-0---------------|-0---------------|
|-------------------|-----------------|-----------------|-----------------|
|-------------------|-----------------|-----------------|-----------------|


   Chorus
    $
    Bbsus2                               C
    Gtr I
    W                +W                  W                  W
    |                 |
    /                 /

    Gtr IV
    Q.   E +Q   Q    +H     Q   E   E    Q.   E +E  E Q    +H     Q  E E
||--1----1-(1)--1--|-(1)----1--(1)-(1)-|-3----3-(3)-3-3--|-(3)----3--3-3--|
||o-1----1-(1)--1--|-(1)----1--(1)-(1)-|-5----5-(5)-5-5--|-(5)----5--5-5--|
||--3----3-(3)--3--|-(3)----3--(3)-(3)-|-5----5-(5)-5-5--|-(5)----5--5-5--|
||-----------------|-------------------|-----------------|----------------|
||o----------------|-------------------|-----------------|----------------|
||-----------------|-------------------|-----------------|----------------|


  G                               G
  W                W              W               +W
                                  |                |
                                  /                /

  Q.   E E E Q    +H     Q  E E   Q.   E E E Q    +H     Q  E E
|-3----------3--|-(3)----3------|-3----------3--|-(3)----3-------||
|-0----0-0-0-0--|-(0)----0--0-0-|-0----0-0-0-0--|-(0)----0--0-0-o||
|-0----0-0-0-0--|-(0)----0--0-0-|-0----0-0-0-0--|-(0)----0--0-0--||
|---------------|---------------|---------------|----------------||
|---------------|---------------|---------------|---------------o||
|---------------|---------------|---------------|----------------||


                                               To Coda
  Bbsus2                               C/G
  W                +W                  W          +W
  |                 |                  |           |
  /                 /                  /           /

  Q.   E +Q   Q    +H     Q   E   E    W          +W
|-1----1-(1)--1--|-(1)----1--(1)-(1)-|-3--------|-(3)-----|
|-1----1-(1)--1--|-(1)----1--(1)-(1)-|-5--------|-(5)-----|
|-3----3-(3)--3--|-(3)----3--(3)-(3)-|-5--------|-(5)-----|
|----------------|-------------------|----------|---------|
|----------------|-------------------|----------|---------|
|----------------|-------------------|----------|---------|


 Guitar Solo
  D+sus2/Bb
  Gtr V
   a  W                  +H        +E   Q.
|---------------------|----------------------|
|---------------------|----------------------|
|-12s14---------------|-(14)------(14)-17----|
|---------------------|----------------------|
|---------------------|----------------------|
|---------------------|----------------------|
|
| Gtrs I, IV
|     Q  E E +E  Q.       Q   E E  +E   Q.
|----------0-(0)------|---------0--(0)-------|
|----------------3----|-----------------3----|
|--------3------------|-------3--------------|
|-----0---------------|---0------------------|
|---------------------|----------------------|
|---------------------|----------------------|


   a  E  Q.      +H          +H.              E  E
|-------------------------|--------------------------|
|-------------------------|--------------------------|
|-12s14s12------(12)------|-(12)-------------10h12---|
|-------------------------|--------------------------|
|-------------------------|--------------------------|
|-------------------------|--------------------------|
|
|     Q     E E  +E  Q.       Q   E E +E  Q.
|-------------0--(0)------|---------0-(0)------------|
|--------------------3----|---------------3----------|
|-----------3-------------|-------3------------------|
|-----0-------------------|---0----------------------|
|-------------------------|--------------------------|
|-------------------------|--------------------------|


  Dsus2
   Q      +H.                   +W
|----------------------------|--------------------|
|----------------------------|--------------------|
|-12b14--(12)b14=============|=(12)---------------|
|----------------------------|--------------------|
|----------------------------|--------------------|
|----------------------------|--------------------|
|
|  Q       E      E +E  Q.       Q   E E +E  Q.
|-----------------0-(0)------|---------0-(0)------|
|-----------------------3----|---------------3----|
|----------2-----------------|-------2------------|
|--0-------------------------|---0----------------|
|----------------------------|--------------------|
|----------------------------|--------------------|


   +H.              +Q      +Q    +E  S  T  T  Q.      T  T T  T
|------------------------|----------------------------------------|
|------------------------|--------------------10h=====11p10p8-----|
|-(12)-------------(12)r=|=(12)--(12)------12-----------------12--|
|------------------------|--------------12------------------------|
|------------------------|----------------------------------------|
|------------------------|----------------------------------------|
|
|   Q   E E +E  Q.           Q     E  E       +E  Q.
|---------0-(0)----------|------------0-------(0)-----------------|
|---------------3--------|------------------------3---------------|
|-------2----------------|---------2------------------------------|
|---0--------------------|---0------------------------------------|
|------------------------|----------------------------------------|
|------------------------|----------------------------------------|


  D+sus2/Bb
   H       S   S  S S  Q     +Q.     S  S  H
|-------------------------|------------------------|
|-10------10h=11p10p8-10--|-(10)----10h11-13-------|
|-------------------------|------------------------|
|-------------------------|------------------------|
|-------------------------|------------------------|
|-------------------------|------------------------|
|
|  Q  E E +E      Q.          Q   E  E    +E  Q.
|-------0-(0)-------------|----------0----(0)------|
|-----------------3-------|-------------------3----|
|-----3-------------------|-------3----------------|
|--0----------------------|---0--------------------|
|-------------------------|------------------------|
|-------------------------|------------------------|


   +Q.     S  S  +H          +H        +E   E  Q
|-------------------------|-----------------------|
|-(13)----11p10-(10)------|-(10)------(10)--------|
|-------------------------|----------------10h12--|
|-------------------------|-----------------------|
|-------------------------|-----------------------|
|-------------------------|-----------------------|
|
|   Q   E  E     +E  Q.       Q   E E  +E   Q.
|----------0-----(0)------|---------0--(0)--------|
|--------------------3----|-----------------3-----|
|-------3-----------------|-------3---------------|
|---0---------------------|---0-------------------|
|-------------------------|-----------------------|
|-------------------------|-----------------------|


  Dsus2
   +Q.     E  Q.      E    +W
|-----------------------|--------------------|
|-----------------------|--------------------|
|-(12)------------------|--------------------|
|---------15h17p=====14-|-(14)---------------|
|-----------------------|--------------------|
|-----------------------|--------------------|
|
|   Q   E  E +E  Q.         Q   E E +E  Q.
|----------0-(0)--------|---------0-(0)------|
|----------------3------|---------------3----|
|-------2---------------|-------2------------|
|---0-------------------|---0----------------|
|-----------------------|--------------------|
|-----------------------|--------------------|


   +H        +E   E   E  E    E  Q     E  Q       E  E
|--------------------------|---------------------------|
|--------------------17----|----18-------17---------13-|
|--------------------------|---------------------------|
|-(14)------(14)-14-----14s|=15------\14--------\10----|
|--------------------------|---------------------------|
|--------------------------|---------------------------|
|
|   Q   E E  +E   Q.          Q    E   E +E  Q.
|---------0--(0)-----------|-----------0-(0)-----------|
|-----------------3--------|-----------------3---------|
|-------2------------------|-------2-------------------|
|---0----------------------|--0------------------------|
|--------------------------|---------------------------|
|--------------------------|---------------------------|


  D+sus2/Bb
   +E   E  E E  E  E  E E    W
|-------------------------|------------------|
|-(13)----10-------8------|-10---------------|
|-------------------------|------------------|
|------\7----7s=5-----5s7-|------------------|
|-------------------------|------------------|
|-------------------------|------------------|
|
|   Q      E E +E  Q.        Q  E E +E  Q.
|------------0-(0)--------|-------0-(0)------|
|------------------3------|-------------3----|
|----------3--------------|-----3------------|
|---0---------------------|--0---------------|
|-------------------------|------------------|
|-------------------------|------------------|


                                            |--3--|
   Q.     E  +H          +H        Q.      +S   S S
|---------------------|-------------------------------|
|-10-----11-(11)------|-(11)------11------(11)p10p8---|
|---------------------|-------------------------------|
|---------------------|-------------------------------|
|---------------------|-------------------------------|
|---------------------|-------------------------------|
|
|  Q   E  E  +E  Q.       Q   E E +E  Q.
|---------0--(0)------|---------0-(0)-----------------|
|----------------3----|---------------3---------------|
|------3--------------|-------3-----------------------|
|--0------------------|---0---------------------------|
|---------------------|-------------------------------|
|---------------------|-------------------------------|


  Dm7
                    ~~~~~~~~~~~~~~~~~~~~~~~~~~
   H.              +Q      +W
|-----------------------|--------------------|
|-10--------------(10)--|-(10)---------------|
|-----------------------|--------------------|
|-----------------------|--------------------|
|-----------------------|--------------------|
|-----------------------|--------------------|
|
|  Q   E E +E  Q.           Q   E E +E  Q.
|--------5-(5)----------|---------5-(5)------|
|--------------6--------|---------------6----|
|------5----------------|-------5------------|
|--0--------------------|---0----------------|
|-----------------------|--------------------|
|-----------------------|--------------------|


  E7b5/D
 ~~~~~~
   +W                   W
|--------------------|------------------|
|-(10)---------------|-10---------------|
|--------------------|------------------|
|--------------------|------------------|
|--------------------|------------------|
|--------------------|------------------|
|
|   Q   E E +E  Q.      Q  E E +E  Q.
|---------5-(5)------|-------5-(5)------|
|---------------6----|-------------6----|
|-------4------------|-----4------------|
|---0----------------|--0---------------|
|--------------------|------------------|
|--------------------|------------------|


  Fadd4/D
   +H.              +Q          +H.              +E   +E
|----------------------------|----------------------------|
|-(10)-------------(10)b11===|=(10)-------------(10)r(10)-|
|----------------------------|----------------------------|
|----------------------------|----------------------------|
|----------------------------|----------------------------|
|----------------------------|----------------------------|
|
|   Q   E E +E  Q.               Q   E E +E  Q.
|---------5-(5)--------------|---------5-(5)--------------|
|---------------6------------|---------------6------------|
|-------3--------------------|-------3--------------------|
|---0------------------------|---0------------------------|
|----------------------------|----------------------------|
|----------------------------|----------------------------|


   W                     +H.             Q
|---------------------|---------------------|
|-10b11---------------|-(10)p============8--|
|---------------------|---------------------|
|---------------------|---------------------|
|---------------------|---------------------|
|---------------------|---------------------|
|
|  Q     E E +E  Q.       Q   E E +E  Q.
|----------5-(5)------|---------------------|
|----------------6----|---------5-(5)-6-----|
|--------3------------|-------3-------------|
|--0------------------|---0-----------------|
|---------------------|---------------------|
|---------------------|---------------------|


  Dsus2
  +Q.     E  H         +W
|--------------------|-------------------|
|-(8)----------------|-------------------|
|--------10p=9-------|-(9)---------------|
|--------------------|-------------------|
|--------------------|-------------------|
|--------------------|-------------------|
|
|  Q   E  E +E  Q.      Q   E E +E  Q.
|---------0-(0)------|--------0-(0)------|
|---------------3----|--------------3----|
|------2-------------|------2------------|
|--0-----------------|--0----------------|
|--------------------|-------------------|
|--------------------|-------------------|


  +W                  +H.             +E     E
|-------------------|--------------------------|
|-------------------|--------------------------|
|-(9)---------------|-(9)-------------(9)b10---|
|-------------------|--------------------------|
|-------------------|--------------------------|
|-------------------|--------------------------|
|
|  Q   E E +E  Q.      Q   E E +E  Q.
|--------0-(0)------|--------0-(0)-------------|
|--------------3----|--------------3-----------|
|------2------------|------2-------------------|
|--0----------------|--0-----------------------|
|-------------------|--------------------------|
|-------------------|--------------------------|


   Verse 3
    D+sus2/Bb
    Gtrs I, IV
    Q  E E +E  Q.     Q  E E +E  Q.     Q  E E +E  Q.     Q  E E +E  Q.
||-------0-(0)------|------0-(0)------|------0-(0)------|------0-(0)-------|
||o------------3----|------------3----|------------3----|------------3-----|
||-----3------------|----3------------|----3------------|----3-------------|
||--0---------------|-0---------------|-0---------------|-0----------------|
||o-----------------|-----------------|-----------------|------------------|
||------------------|-----------------|-----------------|------------------|


  Dsus2
  Q  E E +E  Q.     Q  E E +E  Q.     Q  E E +E  Q.     Q  E E +E  Q.
|------0-(0)------|------0-(0)------|------0-(0)------|------0-(0)-------||
|------------3----|------------3----|------------3----|------------3----o||
|----2------------|----2------------|----2------------|----2-------------||
|-0---------------|-0---------------|-0---------------|-0----------------||
|-----------------|-----------------|-----------------|-----------------o||
|-----------------|-----------------|-----------------|------------------||


  D+sus2/Bb
  Q  E E +E  Q.     Q  E E +E  Q.     Q  E E +E  Q.     Q  E E +E  Q.
|------0-(0)------|------0-(0)------|------0-(0)------|------0-(0)------|
|------------3----|------------3----|------------3----|------------3----|
|----3------------|----3------------|----3------------|----3------------|
|-0---------------|-0---------------|-0---------------|-0---------------|
|-----------------|-----------------|-----------------|-----------------|
|-----------------|-----------------|-----------------|-----------------|


  Dm7                                 E7b5/D
  Q  E E +E  Q.     Q  E E +E  Q.     Q  E E +E  Q.     Q  E E +E  Q.
|------5-(5)------|------5-(5)------|------5-(5)------|------5-(5)------|
|------------6----|------------6----|------------6----|------------6----|
|----5------------|----5------------|----4------------|----4------------|
|-0---------------|-0---------------|-0---------------|-0---------------|
|-----------------|-----------------|-----------------|-----------------|
|-----------------|-----------------|-----------------|-----------------|


  Fadd4/D
  Q  E E +E  Q.     Q  E E +E  Q.     Q  E E +E  Q.     Q  E E +E  Q  +S  S
|------5-(5)------|------5-(5)------|------5-(5)------|---------------------|
|------------6----|------------6----|------------6----|------5-(5)-6--(6)s8-|
|----3------------|----3------------|----3------------|----3----------------|
|-0---------------|-0---------------|-0---------------|-0-------------------|
|-----------------|-----------------|-----------------|---------------------|
|-----------------|-----------------|-----------------|---------------------|


                                                          D.S. al Coda
  Dsus2
  Q  E E +E  Q.     Q  E E +E  Q.     Q  E E +E  Q.     Q  E E +E  Q.
|------0-(0)------|------0-(0)------|------0-(0)------|------0-(0)------|
|------------3----|------------3----|------------3----|------------3----|
|----2------------|----2------------|----2------------|----2------------|
|-0---------------|-0---------------|-0---------------|-0---------------|
|-----------------|-----------------|-----------------|-----------------|
|-----------------|-----------------|-----------------|-----------------|


 Bridge 1
  &
  D5
  Gtrs I, IV
  W                    +W
  |                     |
  /                     /

  Gtr VI
  PM-----------------------------------
  E  E  E E +E  E Q     E Q  E Q  E E
|--------------------|----------------|
|--------------------|----------------|
|--------------------|----------------|
|--------------------|----------------|
|-3h=5---------------|----------------|
|-0-(0)-0-0-(0)-0-0--|--0-0--0-0--0-0-|


    +W                    +W
     |                     |
     /                     /

 --------------------------------------|
     E  E  E E +E  E Q     E Q  E Q  E E  3x
||----------------------|-----------------||
||o---------------------|----------------o||
||----------------------|-----------------||
||----------------------|-----------------||
||o--3h=5---------------|----------------o||
||---0-(0)-0-0-(0)-0-0--|--0-0--0-0--0-0--||


    N.C.(D5)
    Gtr V
    E  E  E E  E  E E E   E E E E E E E E
||--8--8--8-8-----7-7-7-|---3-3-3---5-----|
||o---------------------|-----------------|
||--5--5--5-5--0--4-4-4-|-0-0-0-0-0-2-0-0-|
||----------------------|-----------------|
||o---------------------|-----------------|
||----------------------|-----------------|
|
|   Gtr VI
|   PM-------------------------------------
|   E  E  E E +E  E Q     E Q   E Q   E E
||----------------------|-----------------|
||o---------------------|-----------------|
||----------------------|-----------------|
||----------------------|-----------------|
||o-3h=5----------------|-----------------|
||--0-(0)-0-0-(0)-0-0---|-0-0---0-0---0-0-|


  E  E  E E  E  E E E   E E E E E E E E
|---------------------|-------------------||
|-6-------8-----------|------------------o||
|----0--0-------9---9-|---7-7-7-7-7-7-7---||
|-3-------5-----------|-------------------||
|---------------7---7-|---5-5-5-5-5-5-5--o||
|---------------------|-------------------||
|
|-------------------------------------|
| E  E  E E +E  E Q     E Q   E Q   E E
|---------------------|-------------------||
|---------------------|------------------o||
|---------------------|-------------------||
|---------------------|-------------------||
|-3h=5----------------|------------------o||
|-0-(0)-0-0-(0)-0-0---|-0-0---0-0---0-0---||


    C5D5                                C5D5
    E E E E E E E E   E E E E E E E E   E E E E E E E E   E E E E E E E E   3x
||--8-8-8-8---7-7-7-|---3-3-3---5-----|-----------------|-------------------||
||o-----------------|-----------------|-6-----8---------|------------------o||
||--5-5-5-5-0-4-4-4-|-0-0-0-0-0-2-0-0-|---0-0-----9---9-|---7-7-7-7-7-7-7---||
||------------------|-----------------|-3-----5---------|-------------------||
||o-----------------|-----------------|-----------7---7-|---5-5-5-5-5-5-5--o||
||------------------|-----------------|-----------------|-------------------||
|
|   E E E E E E E E   E E E E E E E E   E E E E E E E E   E E E E E E E E   3x
||------------------|-----------------|-----------------|-------------------||
||o-----------------|-----------------|-----------------|------------------o||
||------------------|-----------------|-----------------|-------------------||
||--5s7-7-7-7-7-7-7-|-7-7-7-7-7-7-7-7-|-5s7-7-7-7-7-7-7-|-7-7-7-7-7-7-7-7---||
||o-3s5-5-5-5-5-5-5-|-5-5-5-5-5-5-5-5-|-3s5-5-5-5-5-5-5-|-5-5-5-5-5-5-5-5--o||
||------------------|-----------------|-----------------|-------------------||


  C5D5                                C5D5              N.C.
  E E E E E E E E   E E E E E E E E   E E E E E E E E   E E E E E E E E
|-8-8-8-8---7-7-7-|---3-3-3---5-----|-----------------|-----------------|
|-----------------|-----------------|-6-----8---------|-----------------|
|-5-5-5-5-0-4-4-4-|-0-0-0-0-0-2-0-0-|---0-0-----9---9-|---7-7-7-7-7-7-7-|
|-----------------|-----------------|-3-----5---------|-----------------|
|-----------------|-----------------|-----------7---7-|---5-5-5-5-5-5-5-|
|-----------------|-----------------|-----------------|-----------------|
|
| E E E E E E E E   E E E E E E E E   E E E E E E E E   E E E E E E E E
|-----------------|-----------------|-----------------|-----------------|
|-----------------|-----------------|-----------------|-----------------|
|-----------------|-----------------|-----------------|-----------------|
|-5s7-7-7-7-7-7-7-|-7-7-7-7-7-7-7-7-|-5s7-7-7-7-7-7-7-|-----------------|
|-3s5-5-5-5-5-5-5-|-5-5-5-5-5-5-5-5-|-3s5-5-5-5-5-5-5-|-8-5-5-8-5-5-8-5-|
|-----------------|-----------------|-----------------|-----------------|


 Bridge 2
  D5     EbD5              EbD5EbD5          EbD5        N.C.
  Gtr VI
  Q  E E E E E E   E E E E E E E E   E E E E E E E E   E S S E E E E E E
|----------------|-----------------|-----------------|-------------------|
|----------------|-----------------|-----------------|-------------------|
|----------------|-----------------|-----------------|-------------------|
|-0----0-1p0---0-|---0---0-1-0-1-0-|---0---0-1-0---0-|-----------6-------|
|-0----0-1p0---0-|---0---0-1-0-1-0-|---0---0-1-0---0-|---------6---6-----|
|-0----0-1p0---0-|---0---0-1p0-1p0-|---0---0-1p0---0-|---0h6-7-------7-6-|


      D5    EbD5              Eb5 Eb5           EbD5        N.C.
    E E E E E E E E   E E E E E E E E   E E E E E E E E   E S S E E E E E E  3x
||------------------|-----------------|-----------------|--------------------||
||o-----------------|-----------------|-----------------|-------------------o||
||------------------|-----------------|-----------------|--------------------||
||----0---0-1p0---0-|---0---0-1-0-1-0-|---0---0-1-0---0-|-----------6--------||
||o---0---0-1p0---0-|---0---0-1-0-1-0-|---0---0-1-0---0-|---------6---6-----o||
||----0---0-1p0---0-|---0---0-1p0-1p0-|---0---0-1p0---0-|---0h6-7-------7-6--||


 Bridge 3
  N.C.Eb  D     Eb    D  N.C.              Eb  D    Eb    D  N.C.
  PM|   PM               PM--------------|   PM
  E E E E E E E E   E Q  S S E E E E   E E E E Q  E E   E Q  S S E E E E
|-----------------|------------------|----------------|--------------------|
|-----------------|------------------|----------------|--------------------|
|-----------------|------------------|----------------|--------------------|
|-----5---4-4---5-|---4--------------|-----5---4----5-|---4----------------|
|-----6---5-5---6-|---5--------------|-----6---5----6-|---5------5-6-5-----|
|-0-0---0---------|------0-0-0-0-0-0-|-0-0---0--------|------6h7-------6---|


      Eb  D    Eb    D  N.C.              Eb  D    N.C.
  PM|   PM              PM--------------|   PM                      ~~
  E E E E Q  E E   E Q  S S E E E E   E E E E Q  E E   E E E E E E  Q
|----------------|------------------|----------------|-----------------|
|----------------|------------------|----------------|-----------------|
|----------------|------------------|----------------|-------------10--|
|-----5---4----5-|---4--------------|-----5---4------|---7-6-----9-----|
|-----6---5----6-|---5--------------|-----6---5----0-|-8-----7-8-------|
|-0-0---0--------|------0-0-0-0-0-0-|-0-0---0--------|-----------------|


        Eb    D        Eb      D     N.C.
  Gtr V
   E  E  E  E  E  E  E  E    E  E  E  E    E  E  E  E
|-------------------------|---------------------------|
|-------------------------|---------------------------|
|-14-14-14-14-14-14-14-14-|-14-14-14-15---15-15-15-12-|
|-------------------------|---------------------------|
|-12-12-12-12-12-12-12-12-|-12-12-12-13---13-13-13-10-|
|-------------------------|---------------------------|
|
| Gtr VI
|  PM|      PM                        PM---------------
|  E  E  E  E  Q     E  E    E  Q     S S  E  E  E  E
|-------------------------|---------------------------|
|-------------------------|---------------------------|
|-------------------------|---------------------------|
|--------5-----4--------5-|-----4---------------------|
|--------6-----5--------6-|-----5---------------------|
|--0--0-----0-------------|-----------0-0--0--0--0--0-|


        Eb    D        Eb      D     N.C.
   E  E  E  E  E  E  E  E    E  E  E  E    E  E  E  E
|-------------------------|-----------------------------|
|-------------------------|-----------------------------|
|-12-14-14-14-14-14-14-14-|-14-14-14-15---15-15-15-12---|
|-------------------------|-----------------------------|
|-10-12-12-12-12-12-12-12-|-12-12-12-13---13-13-13-10---|
|-------------------------|-----------------------------|
|
|----|      PM
|  E  E  E  E  E  E  E  E    E  Q     S S  E  E  E  E
|-------------------------|-----------------------------|
|-------------------------|-----------------------------|
|-------------------------|-----------------------------|
|--------5-----4--4-----5-|-----4-----------------------|
|--------6-----5--5-----6-|-----5----------5--6--5------|
|--0--0-----0-------------|-----------6h7-----------6---|


        Eb    D        Eb      D     N.C.
   E  E  E  E  E  E  E  E    E  E  E  E    E  E  E  E
|-------------------------|---------------------------|
|-------------------------|---------------------------|
|-12-14-14-14-14-14-14-14-|-14-14-14-15---15-15-15-12-|
|-------------------------|---------------------------|
|-10-12-12-12-12-12-12-12-|-12-12-12-13---13-13-13-10-|
|-------------------------|---------------------------|
|
|  PM|      PM                        PM---------------
|  E  E  E  E  E  E  E  E    E  Q     S S  E  E  E  E
|-------------------------|---------------------------|
|-------------------------|---------------------------|
|-------------------------|---------------------------|
|--------5-----4--4-----5-|-----4---------------------|
|--------6-----5--5-----6-|-----5---------------------|
|--0--0-----0-------------|-----------0-0--0--0--0--0-|


        Eb    D        N.C.
   E  E  E  E  E  E  E  E    E  E  E  E  E  E  E  E
|-------------------------|-------------------------|
|-------------------------|-------------------------|
|-12-14-14-14-14-14-14-14-|-14-14-14-14-14-14-14-14-|
|-------------------------|-------------------------|
|-10-12-12-12-12-12-12-12-|-12-12-12-12-12-12-12-12-|
|-------------------------|-------------------------|
|
|----|      PM                                 ~~
|  E  E  E  E  Q     E  E    E  E  E  E  E  E  Q
|-------------------------|-------------------------|
|-------------------------|-------------------------|
|-------------------------|-------------------10----|
|--------5-----4----------|-----7--6--------9-------|
|--------6-----5--------0-|--8--------7--8----------|
|--0--0-----0-------------|-------------------------|


   Bridge 4
    N.C.
    E E E E E E E E   E E E E E E E E   E E E E E E E E   E E E E E E E E
||--8-8-8-8---7-7-7-|---3-3-3---5-----|-----------------|-------------------||
||o-----------------|-----------------|-6-----8---------|------------------o||
||--5-5-5-5-0-4-4-4-|-0-0-0-0-0-2-0-0-|---0-0-----9---9-|---7-7-7-7-7-7-7---||
||------------------|-----------------|-3-----5---------|-------------------||
||o-----------------|-----------------|-----------7---7-|---5-5-5-5-5-5-5--o||
||------------------|-----------------|-----------------|-------------------||
|
|   E E E E E E E E   E E E E E E E E   E E E E E E E E   E E E E E E E E
||------------------|-----------------|-----------------|-------------------||
||o-----------------|-----------------|-----------------|------------------o||
||------------------|-----------------|-----------------|---------5-5-7-7---||
||------------------|-----------------|-------5-5-5-6-6-|-6-7-7-7-----------||
||o-5-5-5-----------|---------3-3-5-5-|-8-8-8-----------|------------------o||
||--------5-5-5-6-6-|-6-7-7-7---------|-----------------|-------------------||


  E E E E E E E E   E E E E E E E E   E E E E E E E E   E E E E E E E E
|-8-8-8-8---7-7-7-|---3-3-3---5-----|-----------------|-----------------|
|-----------------|-----------------|-6-----8---------|-----------------|
|-5-5-5-5-0-4-4-4-|-0-0-0-0-0-2-0-0-|---0-0-----9---9-|---7-7-7-7-7-7-7-|
|-----------------|-----------------|-3-----5---------|-----------------|
|-----------------|-----------------|-----------7---7-|---5-5-5-5-5-5-5-|
|-----------------|-----------------|-----------------|-----------------|
|
| E E E E E E E E   E E E E E E E E   E E E E E E E E   E E E E E E E E
|-----------------|-----------------|-----------------|-----------------|
|-----------------|-----------------|-----------------|-----------------|
|-7-7-7-7-7-7-7-7-|-7-7-7-7-7-6-5---|-7-7-7-6-6-6-5-5-|-5---------------|
|-----------------|---------------7-|-----------------|---7-7-7-6-5-----|
|-----------------|-----------------|-----------------|-------------8-5-|
|-----------------|-----------------|-----------------|-----------------|


  E E E E  E  E E E   E E E E E E E E   E E E E E E E E   E E E E E E E E
|-8-8-8-8-----7-7-7-|---3-3-3---5-----|-----------------|-----------------|
|-------------------|-----------------|-6-----8---------|-----------------|
|-5-5-5-5--0--4-4-4-|-0-0-0-0-0-2-0-0-|---0-0-----9---9-|---7-7-7-7-7-7-7-|
|-------------------|-----------------|-3-----5---------|-----------------|
|-------------------|-----------------|-----------7---7-|---5-5-5-5-5-5-5-|
|-------------------|-----------------|-----------------|-----------------|
|
| E E E E +E  E E E   E E E E E E E E   E E E E E E E E   E E E E E E E E
|-------------------|-----------------|-----------------|-----------------|
|-------------------|-----------------|-----------------|-----------------|
|-------------------|-----------------|-----------------|---------5-5-7-7-|
|-------------------|-----------------|-------5-5-5-6-6-|-6-7-7-7---------|
|-3h5-5-------------|---------3-3-5-5-|-8-8-8-----------|-----------------|
|-------5-(5)-5-6-6-|-6-7-7-7---------|-----------------|-----------------|


 Verse Riff
  D+sus2/Bb
  Gtrs II, III
  Q   E E +E  Q.       Q   E E +E  Q.
|-------0-(0)--------|-------0-(0)--------|
|-------------3------|-------------3------|
|-----3--------------|-----3--------------|
|-0------------------|-0------------------|
|--------------------|--------------------|
|--------------------|--------------------|
|
| Gtr VI
| E E E E  E  E  E E   E E E E  E  E  E E
|--------------------|--------------------|
|--------------------|--------------------|
|--------------------|--------------------|
|--------------------|--------------------|
|-5-5-5-5--5--5--5-5-|-5-5-5-5--5--5--5-5-|
|--------------------|--------------------|


  Dsus2
  Q   E E +E  Q.       Q   E E +E  Q.
|-------0-(0)--------|-------0-(0)--------|
|-------------3------|-------------3------|
|-----2--------------|-----2--------------|
|-0------------------|-0------------------|
|--------------------|--------------------|
|--------------------|--------------------|
|
| E E E E  E  E  E E   E E E E  E  E  E E
|--------------------|--------------------|
|--------------------|--------------------|
|--------------------|--------------------|
|--------------------|--------------------|
|-5-5-5-5--5--5--5-5-|-5-5-5-5--5--5--5-5-|
|--------------------|--------------------|


  D+sus2/Bb
  Q   E E +E  Q.       Q   E E +E  Q.
|-------0-(0)--------|-------0-(0)--------|
|-------------3------|-------------3------|
|-----3--------------|-----3--------------|
|-0------------------|-0------------------|
|--------------------|--------------------|
|--------------------|--------------------|
|
| E E E E  E  E  E E   E E E E  E  E  E E
|--------------------|--------------------|
|--------------------|--------------------|
|--------------------|--------------------|
|--------------------|--------------------|
|-5-5-5-5--5--5--5-5-|-5-5-5-5--5--5--5-5-|
|--------------------|--------------------|


  Dsus2
  Q   E E +E  Q.       Q   E E +E  Q.
|-------0-(0)--------|-------0-(0)--------|
|-------------3------|-------------3------|
|-----2--------------|-----2--------------|
|-0------------------|-0------------------|
|--------------------|--------------------|
|--------------------|--------------------|
|
| E E E E  E  E  E E   E E E E  E  E  E E
|--------------------|--------------------|
|--------------------|--------------------|
|--------------------|--------------------|
|--------------------|-3-3-3-3--3--3--3-3-|
|-5-5-5-5--5--5--5-5-|-5-5-5-5--5--5--5-5-|
|--------------------|--------------------|


  D+sus2/Bb
  Q   E E +E  Q.       Q   E E +E  Q.
|-------0-(0)--------|-------0-(0)--------|
|-------------3------|-------------3------|
|-----3--------------|-----3--------------|
|-0------------------|-0------------------|
|--------------------|--------------------|
|--------------------|--------------------|
|
| E E E E  E  E  E E   E E E E  E  E  E E
|--------------------|--------------------|
|--------------------|--------------------|
|--------------------|--------------------|
|-2-2-2-2--2--2--2-2-|-0-0-0-0--0--0--0-0-|
|-5-5-5-5--5--5--5-5-|-5-5-5-5--5--5--5-5-|
|--------------------|--------------------|


  Dsus2
  Q   E E +E  Q.       Q   E E +E  Q.
|-------0-(0)--------|-------0-(0)--------|
|-------------3------|-------------3------|
|-----2--------------|-----2--------------|
|-0------------------|-0------------------|
|--------------------|--------------------|
|--------------------|--------------------|
|
| E E E E  E  E  E E   E E E E  E  E  E E
|--------------------|--------------------|
|--------------------|--------------------|
|--------------------|--------------------|
|--------------------|--------------------|
|-5-5-5-5--5--5--5-5-|-5-5-5-5--5--5--5-5-|
|--------------------|--------------------|


  Q   E E +E  Q.       Q   E E +E  Q.
|-------0-(0)--------|-------0-(0)--------|
|-------------3------|-------------3------|
|-----3--------------|-----3--------------|
|-0------------------|-0------------------|
|--------------------|--------------------|
|--------------------|--------------------|
|
| E E E E  E  E  E E   E E E E  E  E  E E
|--------------------|--------------------|
|--------------------|--------------------|
|--------------------|--------------------|
|--------------------|--------------------|
|-5-5-5-5--5--5--5-5-|-5-5-5-5--5--5--5-5-|
|--------------------|--------------------|


  Q   E E +E  Q.       Q   E E +E  Q.
|-------0-(0)--------|-------0-(0)--------|
|-------------3------|-------------3------|
|-----2--------------|-----2--------------|
|-0------------------|-0------------------|
|--------------------|--------------------|
|--------------------|--------------------|
|
| E E E E  E  E  E E   E E E E  E  E  E E
|--------------------|--------------------|
|--------------------|--------------------|
|--------------------|--------------------|
|-6-6-6-6--6--6--6-6-|-7-7-7-7--7--7--7-7-|
|-5-5-5-5--5--5--5-5-|-5-5-5-5--5--5--5-5-|
|--------------------|--------------------|


    D+sus2/Bb
    Q   E E +E  Q.       Q   E E +E  Q.
||--------0-(0)--------|-------0-(0)--------|
||o-------------3------|-------------3------|
||------3--------------|-----3--------------|
||--0------------------|-0------------------|
||o--------------------|--------------------|
||---------------------|--------------------|
|
|   E E E E  E  E  E E   E E E E  E  E  E E
||---------------------|--------------------|
||o--------------------|--------------------|
||---------------------|--------------------|
||---------------------|--------------------|
||o-1-1-1-1--1--1--1-1-|-1-1-1-1--1--1--1-1-|
||---------------------|--------------------|


  Dsus2
  Q   E E +E  Q.       Q   E E +E  Q.
|-------0-(0)--------|-------0-(0)----------||
|-------------3------|-------------3-------o||
|-----2--------------|-----2----------------||
|-0------------------|-0--------------------||
|--------------------|---------------------o||
|--------------------|----------------------||
|
| E E E E  E  E  E E   E E E E  E  E  E E
|--------------------|----------------------||
|--------------------|---------------------o||
|--------------------|----------------------||
|--------------------|----------------------||
|-5-5-5-5--5--5--5-5-|-5-5-5-5--5--5--5-5--o||
|--------------------|----------------------||


 Mikael Akerfeldt Solo
  Q=80
  Bb                              Dm
  Gtr I
  W           H     Q.   S. X X   E E S S S S +Q   E E    W
|----------|--------------------|----------------------|--------|
|----------|--------------------|-6-5------------------|--------|
|----------|------------------7-|-----7----------------|--------|
|----------|----------------7---|-------7--------------|--------|
|----------|--------------------|---------8-7-(7)p=5---|--------|
|----------|--------------------|----------------------|--------|
|
| Gtr III
| W          +W                   W                      +W
|-1--------|-(1)----------------|----------------------|--------|
|-3--------|-(3)----------------|-6--------------------|-(6)----|
|-3--------|-(3)----------------|-7--------------------|-(7)----|
|-0--------|-(0)----------------|-7--------------------|-(7)----|
|-1--------|-(1)----------------|-5--------------------|-(5)----|
|----------|--------------------|----------------------|--------|


  Bb
     |---5---| |---5---|
  Q  S S S S S S S S S S T T  S S  S
|------------------------------------|
|------------------------------------|
|--------------------5---7s9h10-9-10s|
|--------------3s5h7---7-------------|
|----3s5h7-8-5-----------------------|
|------------------------------------|
|
| W
|-1----------------------------------|
|-3----------------------------------|
|-3----------------------------------|
|-0----------------------------------|
|-1----------------------------------|
|------------------------------------|


                                      Dmadd2
                |--3--|  |3-|
   S   S  S  S  E  E  E  E  Q  +Q     W          +W
|-----------------------------------|----------|--------|
|-----------------------------------|----------|--------|
|-12--10-12s14-14-14-10-10-10-(10)p=|=9--------|-(9)----|
|-----------------------------------|----------|--------|
|-----------------------------------|----------|--------|
|-----------------------------------|----------|--------|
|
| +W                                  W          +W
|-(1)-------------------------------|-0--------|-(0)----|
|-(3)-------------------------------|-6--------|-(6)----|
|-(3)-------------------------------|-7--------|-(7)----|
|-(0)-------------------------------|-7--------|-(7)----|
|-(1)-------------------------------|-5--------|-(5)----|
|-----------------------------------|----------|--------|


  Bb/D
                     |---5---|
  E T T S +T  S. S S S S S S S +Q
|-------5-(5)-6--6s8-6-5------------|
|-----6------------------6----------|
|---7----------------------7--------|
|----------------------------8-(8)p=|
|-----------------------------------|
|-----------------------------------|
|
| W
|-1---------------------------------|
|-3---------------------------------|
|-3---------------------------------|
|-0---------------------------------|
|-----------------------------------|
|-----------------------------------|


                        D5
               |-3--|
   H.      +E. T  T T   Q.   E +H       +W
|-(0)------(0)--------|---------------|--------|
|--------------8h10p8-|-7-------------|--------|
|---------------------|------7-(7)----|-(7)----|
|--7-------(7)--------|---------------|--------|
|---------------------|---------------|--------|
|---------------------|---------------|--------|
|
| +W                    W               +W
|-(1)-----------------|---------------|--------|
|-(3)-----------------|---------------|--------|
|-(3)-----------------|-7-------------|-(7)----|
|-(0)-----------------|-7-------------|-(7)----|
|---------------------|-5-------------|-(5)----|
|---------------------|---------------|--------|


  Bb
  |---3----| |-3--| |-3-|  |---3----|
  E.  T T  E E E  E E a Q +S    +S  S E
|---------10-8--------------------------|
|-------x------8----8-------------------|
|----10----------10---6s7-(7)b8-(7)-5---|
|-------------------------------------8-|
|---------------------------------------|
|---------------------------------------|
|
| W
|-1-------------------------------------|
|-3-------------------------------------|
|-3-------------------------------------|
|---------------------------------------|
|---------------------------------------|
|---------------------------------------|


                     Dm7                 Dm6
  +H     +Q..    S    +S   E. +H.        +W
|------------------|-------------------|--------|
|------------------|-------------------|--------|
|---------------14-|-(14)-\9--(9)------|-(9)----|
|-(8)----(8)-------|-------------------|--------|
|---------------12-|-(12)-\7--(7)------|-(7)----|
|------------------|-------------------|--------|
|
| +W                   W                  W
|-(1)--------------|---5---------------|--5-----|
|-(3)--------------|-------------------|--------|
|-(3)--------------|---5---------------|--4-----|
|------------------|---3---------------|--3-----|
|------------------|---5---------------|--5-----|
|------------------|-------------------|--------|


  Fadd4/D
                |--9:8---| |---5---|
  Q.   X X S T +T  S S S S S S S S S
|------------------------------------|
|----------5-6-(6)-------------------|
|--------x---------7h9-6h7-----------|
|------x-------------------7h8-5h7-3h|
|------------------------------------|
|------------------------------------|
|
| W
|-5----------------------------------|
|------------------------------------|
|-3----------------------------------|
|-3----------------------------------|
|-5----------------------------------|
|------------------------------------|


   |-5:6--|     |-3-|
   T  T T S +X  S S S +T  S S X +Q   +S  +E.
|------------------------------------------------|
|------------------------------------------------|
|-----------------------------6-(6)--(6)-(6)b7===|
|--5--2h3p0-(0)----------------------------------|
|---------------5p4p0-(0)-4h5--------------------|
|------------------------------------------------|
|
| +W
|-(5)--------------------------------------------|
|------------------------------------------------|
|-(3)--------------------------------------------|
|-(3)--------------------------------------------|
|-(5)--------------------------------------------|
|------------------------------------------------|


                >
  +W           +H      H
|------------|--------------|
|------------|--------------|
|-(6)--------|-(6)r---------|
|------------|--------------|
|------------|--------------|
|------------|--------------|
|
|  W           +W
|------------|--------------|
|------------|--------------|
|--7---------|-(7)----------|
|--7---------|-(7)----------|
|--5---------|-(5)----------|
|------------|--------------|


   Verse 4
    Q=161
    D+sus2/Bb
    Gtrs I, IV
    Q  E E +E  Q.     Q  E E +E  Q.     Q  E E +E  Q.     Q  E E +E  Q.
||-------0-(0)------|------0-(0)------|------0-(0)------|------0-(0)-------|
||o------------3----|------------3----|------------3----|------------3-----|
||-----3------------|----3------------|----3------------|----3-------------|
||--0---------------|-0---------------|-0---------------|-0----------------|
||o-----------------|-----------------|-----------------|------------------|
||------------------|-----------------|-----------------|------------------|


  Dsus2
  Q  E E +E  Q.     Q  E E +E  Q.     Q  E E +E  Q.     Q  E E +E  Q.
|------0-(0)------|------0-(0)------|------0-(0)------|------0-(0)-------||
|------------3----|------------3----|------------3----|------------3----o||
|----2------------|----2------------|----2------------|----2-------------||
|-0---------------|-0---------------|-0---------------|-0----------------||
|-----------------|-----------------|-----------------|-----------------o||
|-----------------|-----------------|-----------------|------------------||


  D+sus2/Bb
  Q  E E +E  Q.     Q  E E +E  Q.     Q  E E +E  Q.     Q  E E +E  Q.
|------0-(0)------|------0-(0)------|------0-(0)------|------0-(0)------|
|------------3----|------------3----|------------3----|------------3----|
|----3------------|----3------------|----3------------|----3------------|
|-0---------------|-0---------------|-0---------------|-0---------------|
|-----------------|-----------------|-----------------|-----------------|
|-----------------|-----------------|-----------------|-----------------|


  Dm7                                 E7b5/D
  Q  E E +E  Q.     Q  E E +E  Q.     Q  E E +E  Q.     Q  E E +E  Q.
|------5-(5)------|------5-(5)------|------5-(5)------|------5-(5)------|
|------------6----|------------6----|------------6----|------------6----|
|----5------------|----5------------|----4------------|----4------------|
|-0---------------|-0---------------|-0---------------|-0---------------|
|-----------------|-----------------|-----------------|-----------------|
|-----------------|-----------------|-----------------|-----------------|


  Fadd4/D
                                                                      |3-|
  Q  E E +E  Q.     Q  E E +E  Q.     Q  E E +E  Q.     Q  E E +E  E +Q  E
|------5-(5)------|------5-(5)------|------5-(5)------|---------------------|
|------------6----|------------6----|------------6----|------5-(5)-6-(6)s8s=|
|----3------------|----3------------|----3------------|----3----------------|
|-0---------------|-0---------------|-0---------------|-0-------------------|
|-----------------|-----------------|-----------------|---------------------|
|-----------------|-----------------|-----------------|---------------------|


  Dsus2
  Gtr II
   Q    Q    E    E   E  E    +Q    Q    +E   Q.
|--------------------------|-----------------------|
|------13---15--(15)-15-13-|-(13)--15---(15)-13----|
|----------------14--------|-----------------------|
|--------------------------|-----------------------|
|--------------------------|-----------------------|
|--------------------------|-----------------------|
|
| Gtr V
|  <
|  W                          +W
|--------------------------|-----------------------|
|-15-----------------------|-(15)------------------|
|--------------------------|-----------------------|
|--------------------------|-----------------------|
|--------------------------|-----------------------|
|--------------------------|-----------------------|
|
| Gtrs I, IV
|  Q    E E +E    Q.           Q    E E  +E   Q.
|---------0-(0)------------|----------0--(0)-------|
|-(5)-------------3--------|------------------3----|
|-------2------------------|--------2--------------|
|--0-----------------------|---0-------------------|
|--------------------------|-----------------------|
|--------------------------|-----------------------|


   +Q    Q    E    E   E  E    +Q    Q    +E   Q.
|---------------------------|-----------------------|
|-(13)--13---15--(15)-15-13-|-(13)--15---(15)-13----|
|-----------------14--------|-----------------------|
|---------------------------|-----------------------|
|---------------------------|-----------------------|
|---------------------------|-----------------------|
|
|  +W                          +W
|---------------------------|-----------------------|
|-(15)----------------------|-(15)------------------|
|---------------------------|-----------------------|
|---------------------------|-----------------------|
|---------------------------|-----------------------|
|---------------------------|-----------------------|
|
|   Q    E E +E    Q.           Q    E E  +E   Q.
|----------0-(0)------------|----------0--(0)-------|
|------------------3--------|------------------3----|
|--------2------------------|--------2--------------|
|---0-----------------------|---0-------------------|
|---------------------------|-----------------------|
|---------------------------|-----------------------|


 Outro
  D+sus2/Bb
    Q    Q    E    E   E  E    +Q    Q    +E   Q.
|---------------------------|-----------------------|
|-------13---15--(15)-15-13-|-(13)--15---(15)-13----|
|-----------------14--------|-----------------------|
|---------------------------|-----------------------|
|---------------------------|-----------------------|
|---------------------------|-----------------------|
|
|  +W                          +W
|---------------------------|-----------------------|
|-(15)----------------------|-(15)------------------|
|---------------------------|-----------------------|
|---------------------------|-----------------------|
|---------------------------|-----------------------|
|---------------------------|-----------------------|
|
|   Q    E E +E    Q.           Q    E E  +E   Q.
|----------0-(0)------------|----------0--(0)-------|
|------------------3--------|------------------3----|
|--------3------------------|--------3--------------|
|---0-----------------------|---0-------------------|
|---------------------------|-----------------------|
|---------------------------|-----------------------|


   +Q    Q    E    E   E  E    +Q    Q    +E   Q.
|---------------------------|-----------------------|
|-(13)--13---15--(15)-15-13-|-(13)--15---(15)-13----|
|-----------------14--------|-----------------------|
|---------------------------|-----------------------|
|---------------------------|-----------------------|
|---------------------------|-----------------------|
|
|  +W                          +W
|---------------------------|-----------------------|
|-(15)----------------------|-(15)------------------|
|---------------------------|-----------------------|
|---------------------------|-----------------------|
|---------------------------|-----------------------|
|---------------------------|-----------------------|
|
|   Q    E E +E    Q.           Q    E E  +E   Q.
|----------0-(0)------------|----------0--(0)-------|
|------------------3--------|------------------3----|
|--------3------------------|--------3--------------|
|---0-----------------------|---0-------------------|
|---------------------------|-----------------------|
|---------------------------|-----------------------|


  Dsus2
   +Q    Q    E    E   E  E    +Q    Q    +E   Q.
|---------------------------|-----------------------|
|-(13)--13---15--(15)-15-13-|-(13)--15---(15)-13----|
|-----------------14--------|-----------------------|
|---------------------------|-----------------------|
|---------------------------|-----------------------|
|---------------------------|-----------------------|
|
|  +W                          +W
|---------------------------|-----------------------|
|-(15)----------------------|-(15)------------------|
|---------------------------|-----------------------|
|---------------------------|-----------------------|
|---------------------------|-----------------------|
|---------------------------|-----------------------|
|
|   Q    E E +E    Q.           Q    E E  +E   Q.
|----------0-(0)------------|----------0--(0)-------|
|------------------3--------|------------------3----|
|--------2------------------|--------2--------------|
|---0-----------------------|---0-------------------|
|---------------------------|-----------------------|
|---------------------------|-----------------------|


   +Q    Q    E    E   E  E    +Q    Q    +E   Q.
|---------------------------|-----------------------|
|-(13)--13---15--(15)-15-13-|-(13)--15---(15)-13----|
|-----------------14--------|-----------------------|
|---------------------------|-----------------------|
|---------------------------|-----------------------|
|---------------------------|-----------------------|
|
|  +W                          +H          H
|---------------------------|-----------------------|
|-(15)----------------------|-(15)-------/18--------|
|---------------------------|-----------------------|
|---------------------------|-----------------------|
|---------------------------|-----------------------|
|---------------------------|-----------------------|
|
|   Q    E E +E    Q.           Q    E E  +E   Q.
|----------0-(0)------------|----------0--(0)-------|
|------------------3--------|------------------3----|
|--------2------------------|--------2--------------|
|---0-----------------------|---0-------------------|
|---------------------------|-----------------------|
|---------------------------|-----------------------|


  D+sus2/Bb
   +Q    Q    E    E   E  E    +Q    Q    +E   Q.
|---------------------------|-----------------------|
|-(13)--13---15--(15)-15-13-|-(13)--15---(15)-13----|
|-----------------14--------|-----------------------|
|---------------------------|-----------------------|
|---------------------------|-----------------------|
|---------------------------|-----------------------|
|
|   W                          +W
|---------------------------|-----------------------|
|--15-----------------------|-(15)------------------|
|---------------------------|-----------------------|
|---------------------------|-----------------------|
|---------------------------|-----------------------|
|---------------------------|-----------------------|
|
|   Q    E E +E    Q.           Q    E E  +E   Q.
|----------0-(0)------------|----------0--(0)-------|
|------------------3--------|------------------3----|
|--------3------------------|--------3--------------|
|---0-----------------------|---0-------------------|
|---------------------------|-----------------------|
|---------------------------|-----------------------|


   +Q    Q    E    E   E  E    +Q    Q    +E   Q.
|---------------------------|-----------------------|
|-(13)--13---15--(15)-15-13-|-(13)--15---(15)-13----|
|-----------------14--------|-----------------------|
|---------------------------|-----------------------|
|---------------------------|-----------------------|
|---------------------------|-----------------------|
|
|  +W                          +W
|---------------------------|-----------------------|
|-(15)----------------------|-(15)------------------|
|---------------------------|-----------------------|
|---------------------------|-----------------------|
|---------------------------|-----------------------|
|---------------------------|-----------------------|
|
|   Q    E E +E    Q.           Q    E E  +E   Q.
|----------0-(0)------------|----------0--(0)-------|
|------------------3--------|------------------3----|
|--------3------------------|--------3--------------|
|---0-----------------------|---0-------------------|
|---------------------------|-----------------------|
|---------------------------|-----------------------|


  Dsus2
   +Q    Q    E    E   E  E    +Q    Q    +E   Q.
|---------------------------|-----------------------|
|-(13)--13---15--(15)-15-13-|-(13)--15---(15)-13----|
|-----------------14--------|-----------------------|
|---------------------------|-----------------------|
|---------------------------|-----------------------|
|---------------------------|-----------------------|
|
|  +W                          +W
|---------------------------|-----------------------|
|-(15)----------------------|-(15)------------------|
|---------------------------|-----------------------|
|---------------------------|-----------------------|
|---------------------------|-----------------------|
|---------------------------|-----------------------|
|
|   Q    E E +E    Q.           Q    E E  +E   Q.
|----------0-(0)------------|----------0--(0)-------|
|------------------3--------|------------------3----|
|--------2------------------|--------2--------------|
|---0-----------------------|---0-------------------|
|---------------------------|-----------------------|
|---------------------------|-----------------------|


   +Q    Q     E    E   E  E    +Q     Q     +E   Q.
|----------------------------|-------------------------|
|-(13)--13----15--(15)-15-13-|-(13)---15----(15)-13----|
|------------------14--------|-------------------------|
|----------------------------|-------------------------|
|----------------------------|-------------------------|
|----------------------------|-------------------------|
|
|  +H          H                +Q     H.
|----------------------------|-------------------------|
|-(15)-------/18-------------|-(18)--\13---------------|
|----------------------------|-------------------------|
|----------------------------|-------------------------|
|----------------------------|-------------------------|
|----------------------------|-------------------------|
|
|   Q    E E  +E    Q.           Q     E  E  +E   Q.
|----------0--(0)------------|------------0--(0)-------|
|-------------------3--------|--------------------3----|
|--------2-------------------|---------2---------------|
|---0------------------------|---0---------------------|
|----------------------------|-------------------------|
|----------------------------|-------------------------|


  D+sus2/Bb
   +Q    Q    E    E    E  E    +Q    Q    +E   Q.
|----------------------------|-----------------------|
|-(13)--13---15--(15)--15-13-|-(13)--15---(15)-13----|
|-----------------14---------|-----------------------|
|----------------------------|-----------------------|
|----------------------------|-----------------------|
|----------------------------|-----------------------|
|
|  +H.                  Q       +W
|----------------------------|-----------------------|
|-(13)----------------/15----|-(15)------------------|
|----------------------------|-----------------------|
|----------------------------|-----------------------|
|----------------------------|-----------------------|
|----------------------------|-----------------------|
|
|   Q    E E +E    Q.            Q    E E  +E   Q.
|----------0-(0)-------------|----------0--(0)-------|
|------------------3---------|------------------3----|
|--------3-------------------|--------3--------------|
|---0------------------------|---0-------------------|
|----------------------------|-----------------------|
|----------------------------|-----------------------|


   +Q    Q    E    E   E  E    +Q    Q    +E   Q.
|---------------------------|-----------------------|
|-(13)--13---15--(15)-15-13-|-(13)--15---(15)-13----|
|-----------------14--------|-----------------------|
|---------------------------|-----------------------|
|---------------------------|-----------------------|
|---------------------------|-----------------------|
|
|  +W                          +W
|---------------------------|-----------------------|
|-(15)----------------------|-(15)------------------|
|---------------------------|-----------------------|
|---------------------------|-----------------------|
|---------------------------|-----------------------|
|---------------------------|-----------------------|
|
|   Q    E E +E    Q.           Q    E E  +E   Q.
|----------0-(0)------------|----------0--(0)-------|
|------------------3--------|------------------3----|
|--------3------------------|--------3--------------|
|---0-----------------------|---0-------------------|
|---------------------------|-----------------------|
|---------------------------|-----------------------|


  Dm7
   +Q    Q    E    E   E  E    +Q    Q    +E   Q.
|---------------------------|-----------------------|
|-(13)--13---15--(15)-15-13-|-(13)--15---(15)-13----|
|-----------------14--------|-----------------------|
|---------------------------|-----------------------|
|---------------------------|-----------------------|
|---------------------------|-----------------------|
|
|  +W                          +W
|---------------------------|-----------------------|
|-(15)----------------------|-(15)------------------|
|---------------------------|-----------------------|
|---------------------------|-----------------------|
|---------------------------|-----------------------|
|---------------------------|-----------------------|
|
|   Q    E E +E    Q.           Q    E E  +E   Q.
|----------5-(5)------------|----------5--(5)-------|
|------------------6--------|------------------6----|
|--------5------------------|--------5--------------|
|---0-----------------------|---0-------------------|
|---------------------------|-----------------------|
|---------------------------|-----------------------|


  E7b5/D
   +Q    Q    E    E   E  E    +Q    Q    +E   Q.
|---------------------------|-----------------------|
|-(13)--13---15--(15)-15-13-|-(13)--15---(15)-13----|
|-----------------14--------|-----------------------|
|---------------------------|-----------------------|
|---------------------------|-----------------------|
|---------------------------|-----------------------|
|
|  +W                          +W
|---------------------------|-----------------------|
|-(15)----------------------|-(15)------------------|
|---------------------------|-----------------------|
|---------------------------|-----------------------|
|---------------------------|-----------------------|
|---------------------------|-----------------------|
|
|   Q    E E +E    Q.           Q    E E  +E   Q.
|----------5-(5)------------|----------5--(5)-------|
|------------------6--------|------------------6----|
|--------4------------------|--------4--------------|
|---0-----------------------|---0-------------------|
|---------------------------|-----------------------|
|---------------------------|-----------------------|


  Fadd4/D
   +Q    Q    E    E   E  E    +Q    Q    +E   Q.
|---------------------------|-----------------------|
|-(13)--13---15--(15)-15-13-|-(13)--15---(15)-13----|
|-----------------14--------|-----------------------|
|---------------------------|-----------------------|
|---------------------------|-----------------------|
|---------------------------|-----------------------|
|
|   W                          +W
|---------------------------|-----------------------|
|-/18-----------------------|-(18)------------------|
|---------------------------|-----------------------|
|---------------------------|-----------------------|
|---------------------------|-----------------------|
|---------------------------|-----------------------|
|
|   Q    E E +E    Q.           Q    E E  +E   Q.
|----------5-(5)------------|----------5--(5)-------|
|------------------6--------|------------------6----|
|--------3------------------|--------3--------------|
|---0-----------------------|---0-------------------|
|---------------------------|-----------------------|
|---------------------------|-----------------------|


   +Q    Q    E    E   E  E    +Q    Q    +E   Q.
|---------------------------|----------------------------|
|-(13)--13---15--(15)-15-13-|-(13)--15---(15)-13---------|
|-----------------14--------|----------------------------|
|---------------------------|----------------------------|
|---------------------------|----------------------------|
|---------------------------|----------------------------|
|
|  +W                          +W
|---------------------------|----------------------------|
|-(18)----------------------|-(18)-----------------------|
|---------------------------|----------------------------|
|---------------------------|----------------------------|
|---------------------------|----------------------------|
|---------------------------|----------------------------|
|
|                                                  |3-|
|   Q    E E +E    Q.           Q    E E  +E   E  +Q  E
|----------5-(5)------------|----------------------------|
|------------------6--------|----------5--(5)--6--(6)s8s=|
|--------3------------------|--------3-------------------|
|---0-----------------------|---0------------------------|
|---------------------------|----------------------------|
|---------------------------|----------------------------|


  Dsus2
   +Q    Q    E    E   E  E    +Q    Q    +E   Q.
|---------------------------|-----------------------|
|-(13)--13---15--(15)-15-13-|-(13)--15---(15)-13----|
|-----------------14--------|-----------------------|
|---------------------------|-----------------------|
|---------------------------|-----------------------|
|---------------------------|-----------------------|
|
|   W                          +W
|---------------------------|-----------------------|
|--17-----------------------|-(17)------------------|
|---------------------------|-----------------------|
|---------------------------|-----------------------|
|---------------------------|-----------------------|
|---------------------------|-----------------------|
|
|   Q    E E +E    Q.           Q    E E  +E   Q.
|----------0-(0)------------|----------0--(0)-------|
|--(5)-------------3--------|------------------3----|
|--------2------------------|--------2--------------|
|---0-----------------------|---0-------------------|
|---------------------------|-----------------------|
|---------------------------|-----------------------|


   +Q    Q    E    E   E  E    +Q    Q    +E   Q.
|---------------------------|-----------------------|
|-(13)--13---15--(15)-15-13-|-(13)--15---(15)-13----|
|-----------------14--------|-----------------------|
|---------------------------|-----------------------|
|---------------------------|-----------------------|
|---------------------------|-----------------------|
|
|  +W                          +W
|---------------------------|-----------------------|
|-(17)----------------------|-(17)------------------|
|---------------------------|-----------------------|
|---------------------------|-----------------------|
|---------------------------|-----------------------|
|---------------------------|-----------------------|
|
|   Q    E E +E    Q.           Q    E E  +E   Q.
|----------0-(0)------------|----------0--(0)-------|
|------------------3--------|------------------3----|
|--------2------------------|--------2--------------|
|---0-----------------------|---0-------------------|
|---------------------------|-----------------------|
|---------------------------|-----------------------|


  D+sus2/Bb
   +Q    Q    E    E   E  E    +Q    Q    +E   Q.
|---------------------------|-----------------------|
|-(13)--13---15--(15)-15-13-|-(13)--15---(15)-13----|
|-----------------14--------|-----------------------|
|---------------------------|-----------------------|
|---------------------------|-----------------------|
|---------------------------|-----------------------|
|
|  +W                          +H          H
|---------------------------|-----------------------|
|-(17)----------------------|-(17)--------15--------|
|---------------------------|-----------------------|
|---------------------------|-----------------------|
|---------------------------|-----------------------|
|---------------------------|-----------------------|
|
|   Q    E E +E    Q.           Q    E E  +E   Q.
|----------0-(0)------------|----------0--(0)-------|
|------------------3--------|------------------3----|
|--------3------------------|--------3--------------|
|---0-----------------------|---0-------------------|
|---------------------------|-----------------------|
|---------------------------|-----------------------|


   +Q    Q    E    E   E  E    +Q     Q     +E   Q.
|---------------------------|-------------------------|
|-(13)--13---15--(15)-15-13-|-(13)---15----(15)-13----|
|-----------------14--------|-------------------------|
|---------------------------|-------------------------|
|---------------------------|-------------------------|
|---------------------------|-------------------------|
|
|  +W                          +Q     H.
|---------------------------|-------------------------|
|-(15)----------------------|-(15)--/18---------------|
|---------------------------|-------------------------|
|---------------------------|-------------------------|
|---------------------------|-------------------------|
|---------------------------|-------------------------|
|
|   Q    E E +E    Q.           Q     E  E  +E   Q.
|----------0-(0)------------|------------0--(0)-------|
|------------------3--------|--------------------3----|
|--------3------------------|---------3---------------|
|---0-----------------------|---0---------------------|
|---------------------------|-------------------------|
|---------------------------|-------------------------|


  Dsus2
   +Q    Q     E    E   E  E    +Q    Q    +E   Q.
|----------------------------|-----------------------|
|-(13)--13----15--(15)-15-13-|-(13)--15---(15)-13----|
|------------------14--------|-----------------------|
|----------------------------|-----------------------|
|----------------------------|-----------------------|
|----------------------------|-----------------------|
|
|  +Q    H.                     +W
|----------------------------|-----------------------|
|-(18)--17-------------------|-(17)------------------|
|----------------------------|-----------------------|
|----------------------------|-----------------------|
|----------------------------|-----------------------|
|----------------------------|-----------------------|
|
|   Q    E  E +E    Q.           Q    E E  +E   Q.
|-----------0-(0)------------|----------0--(0)-------|
|-------------------3--------|------------------3----|
|--------2-------------------|--------2--------------|
|---0------------------------|---0-------------------|
|----------------------------|-----------------------|
|----------------------------|-----------------------|


   +Q    Q    E    E   E  E    +Q     Q     +E   Q.
|---------------------------|-------------------------|
|-(13)--13---15--(15)-15-13-|-(13)---15----(15)-13----|
|-----------------14--------|-------------------------|
|---------------------------|-------------------------|
|---------------------------|-------------------------|
|---------------------------|-------------------------|
|
|  +W                          +Q     H.
|---------------------------|-------------------------|
|-(17)----------------------|-(17)--\13---------------|
|---------------------------|-------------------------|
|---------------------------|-------------------------|
|---------------------------|-------------------------|
|---------------------------|-------------------------|
|
|   Q    E E +E    Q.           Q     E  E  +E   Q.
|----------0-(0)------------|------------0--(0)-------|
|------------------3--------|--------------------3----|
|--------2------------------|---------2---------------|
|---0-----------------------|---0---------------------|
|---------------------------|-------------------------|
|---------------------------|-------------------------|


  D+sus2/Bb
   +Q     Q     E    E   E  E    +Q    Q    +E   Q.
|-----------------------------|-----------------------|
|-(13)---13----15--(15)-15-13-|-(13)--15---(15)-13----|
|-------------------14--------|-----------------------|
|-----------------------------|-----------------------|
|-----------------------------|-----------------------|
|-----------------------------|-----------------------|
|
|  +Q     H.                     +W
|-----------------------------|-----------------------|
|-(13)--\10-------------------|-(10)------------------|
|-----------------------------|-----------------------|
|-----------------------------|-----------------------|
|-----------------------------|-----------------------|
|-----------------------------|-----------------------|
|
|   Q     E  E +E    Q.           Q    E E  +E   Q.
|------------0-(0)------------|----------0--(0)-------|
|--------------------3--------|------------------3----|
|---------3-------------------|--------3--------------|
|---0-------------------------|---0-------------------|
|-----------------------------|-----------------------|
|-----------------------------|-----------------------|


   +Q    Q    E    E   E  E    +Q    Q    +E   Q.
|---------------------------|-----------------------|
|-(13)--13---15--(15)-15-13-|-(13)--15---(15)-13----|
|-----------------14--------|-----------------------|
|---------------------------|-----------------------|
|---------------------------|-----------------------|
|---------------------------|-----------------------|
|
|  +W                          +W
|---------------------------|-----------------------|
|-(10)----------------------|-(10)------------------|
|---------------------------|-----------------------|
|---------------------------|-----------------------|
|---------------------------|-----------------------|
|---------------------------|-----------------------|
|
|   Q    E E +E    Q.           Q    E E  +E   Q.
|----------0-(0)------------|----------0--(0)-------|
|------------------3--------|------------------3----|
|--------3------------------|--------3--------------|
|---0-----------------------|---0-------------------|
|---------------------------|-----------------------|
|---------------------------|-----------------------|


  Dsus2
   +Q    Q    E    E   E  E    +Q    Q    +E   Q.
|---------------------------|-----------------------|
|-(13)--13---15--(15)-15-13-|-(13)--15---(15)-13----|
|-----------------14--------|-----------------------|
|---------------------------|-----------------------|
|---------------------------|-----------------------|
|---------------------------|-----------------------|
|
|  +W                          +W
|---------------------------|-----------------------|
|-(10)----------------------|-(10)------------------|
|---------------------------|-----------------------|
|---------------------------|-----------------------|
|---------------------------|-----------------------|
|---------------------------|-----------------------|
|
|   Q    E E +E    Q.           Q    E E  +E   Q.
|----------0-(0)------------|----------0--(0)-------|
|------------------3--------|------------------3----|
|--------2------------------|--------2--------------|
|---0-----------------------|---0-------------------|
|---------------------------|-----------------------|
|---------------------------|-----------------------|


   +Q    Q    E    E   E  E    +Q    Q    +E   Q.
|---------------------------|-----------------------|
|-(13)--13---15--(15)-15-13-|-(13)--15---(15)-13----|
|-----------------14--------|-----------------------|
|---------------------------|-----------------------|
|---------------------------|-----------------------|
|---------------------------|-----------------------|
|
|  +W                          +W
|---------------------------|-----------------------|
|-(10)----------------------|-(10)------------------|
|---------------------------|-----------------------|
|---------------------------|-----------------------|
|---------------------------|-----------------------|
|---------------------------|-----------------------|
|
|   Q    E E +E    Q.           Q    E E  +E   Q.
|----------0-(0)------------|----------0--(0)-------|
|------------------3--------|------------------3----|
|--------2------------------|--------2--------------|
|---0-----------------------|---0-------------------|
|---------------------------|-----------------------|
|---------------------------|-----------------------|


  D+sus2/Bb
   +Q    Q    E    E   E  E    +Q    Q    +E   Q.
|---------------------------|-----------------------|
|-(13)--13---15--(15)-15-13-|-(13)--15---(15)-13----|
|-----------------14--------|-----------------------|
|---------------------------|-----------------------|
|---------------------------|-----------------------|
|---------------------------|-----------------------|
|
|   W                          +W
|---------------------------|-----------------------|
|-/15-----------------------|-(15)------------------|
|---------------------------|-----------------------|
|---------------------------|-----------------------|
|---------------------------|-----------------------|
|---------------------------|-----------------------|
|
|   Q    E E +E    Q.           Q    E E  +E   Q.
|----------0-(0)------------|----------0--(0)-------|
|------------------3--------|------------------3----|
|--------3------------------|--------3--------------|
|---0-----------------------|---0-------------------|
|---------------------------|-----------------------|
|---------------------------|-----------------------|


   +Q    Q    E    E   E  E    +Q    Q    +E   Q.
|---------------------------|-----------------------|
|-(13)--13---15--(15)-15-13-|-(13)--15---(15)-13----|
|-----------------14--------|-----------------------|
|---------------------------|-----------------------|
|---------------------------|-----------------------|
|---------------------------|-----------------------|
|
|  +W                          +W
|---------------------------|-----------------------|
|-(15)----------------------|-(15)------------------|
|---------------------------|-----------------------|
|---------------------------|-----------------------|
|---------------------------|-----------------------|
|---------------------------|-----------------------|
|
|   Q    E E +E    Q.           Q    E E  +E   Q.
|----------0-(0)------------|----------0--(0)-------|
|------------------3--------|------------------3----|
|--------3------------------|--------3--------------|
|---0-----------------------|---0-------------------|
|---------------------------|-----------------------|
|---------------------------|-----------------------|


  Dm7
   +Q    Q    E    E   E  E    +Q    Q    +E   Q.
|---------------------------|-----------------------|
|-(13)--13---15--(15)-15-13-|-(13)--15---(15)-13----|
|-----------------14--------|-----------------------|
|---------------------------|-----------------------|
|---------------------------|-----------------------|
|---------------------------|-----------------------|
|
|  +W                          +W
|---------------------------|-----------------------|
|-(15)----------------------|-(15)------------------|
|---------------------------|-----------------------|
|---------------------------|-----------------------|
|---------------------------|-----------------------|
|---------------------------|-----------------------|
|
|   Q    E E +E    Q.           Q    E E  +E   Q.
|----------5-(5)------------|----------5--(5)-------|
|------------------6--------|------------------6----|
|--------5------------------|--------5--------------|
|---0-----------------------|---0-------------------|
|---------------------------|-----------------------|
|---------------------------|-----------------------|


  E7b5/D
   +Q    Q    E    E   E  E    +Q    Q    +E   Q.
|---------------------------|--------------------------|
|-(13)--13---15--(15)-15-13-|-(13)--15---(15)-13-------|
|-----------------14--------|--------------------------|
|---------------------------|--------------------------|
|---------------------------|--------------------------|
|---------------------------|--------------------------|
|
|  +W                          +H.                  Q
|---------------------------|--------------------------|
|-(15)----------------------|-(15)----------------/18--|
|---------------------------|--------------------------|
|---------------------------|--------------------------|
|---------------------------|--------------------------|
|---------------------------|--------------------------|
|
|   Q    E E +E    Q.           Q    E E  +E   Q.
|----------5-(5)------------|----------5--(5)----------|
|------------------6--------|------------------6-------|
|--------4------------------|--------4-----------------|
|---0-----------------------|---0----------------------|
|---------------------------|--------------------------|
|---------------------------|--------------------------|


  Fadd4/D
   +Q    Q    E    E   E  E    +Q    Q    +E   Q.
|---------------------------|-----------------------|
|-(13)--13---15--(15)-15-13-|-(13)--15---(15)-13----|
|-----------------14--------|-----------------------|
|---------------------------|-----------------------|
|---------------------------|-----------------------|
|---------------------------|-----------------------|
|
|  +W                          +W
|---------------------------|-----------------------|
|-(18)----------------------|-(18)------------------|
|---------------------------|-----------------------|
|---------------------------|-----------------------|
|---------------------------|-----------------------|
|---------------------------|-----------------------|
|
|   Q    E E +E    Q.           Q    E E  +E   Q.
|----------5-(5)------------|----------5--(5)-------|
|------------------6--------|------------------6----|
|--------3------------------|--------3--------------|
|---0-----------------------|---0-------------------|
|---------------------------|-----------------------|
|---------------------------|-----------------------|


   +Q    Q    E    E   E  E    +Q    Q    +E   Q.
|---------------------------|---------------------------*|
|-(13)--13---15--(15)-15-13-|-(13)--15---(15)-13--------*|
|-----------------14--------|---------------------------*|
|---------------------------|---------------------------*|
|---------------------------|---------------------------*|
|---------------------------|---------------------------*|
|
|  +W                          +W
|---------------------------|---------------------------*|
|-(18)----------------------|-(18)----------------------*|
|---------------------------|---------------------------*|
|---------------------------|---------------------------*|
|---------------------------|---------------------------*|
|---------------------------|---------------------------*|
|
|                                                  |3-|
|   Q    E E +E    Q.           Q    E E  +E   E  +Q  E
|----------5-(5)------------|---------------------------*|
|------------------6--------|----------5--(5)--6--(6)s8-*|
|--------3------------------|--------3------------------*|
|---0-----------------------|---0-----------------------*|
|---------------------------|---------------------------*|
|---------------------------|---------------------------*|



Duration Legend
---------------
W - whole; H - half; Q - quarter; E - 8th; S - 16th; T - 32nd; X - 64th; a - acciaccatura
+ - note tied to previous; . - note dotted; .. - note double dotted
Uncapitalized letters represent notes that are staccato (1/2 duration)
Irregular groupings are notated above the duration line
Duration letters will always appear directly above the note/fret number it represents the
duration for.  Duration letters with no fret number below them represent rests.  Multi-
bar rests are notated in the form Wxn, where n is the number of bars to rest for.  Low
melody durations appear below the staff

Tablature Legend
----------------
 h   - hammer-on
 p   - pull-off
 b   - bend
 pb  - pre-bend
 r   - bend release (if no number after the r, then release immediately)
 /\  - slide into or out of (from/to "nowhere")
 s   - legato slide
 S   - shift slide
 - natural harmonic
[n]  - artificial harmonic
n(n) - tapped harmonic
 ~   - vibrato
 tr  - trill
 T   - tap
 TP  - trem. picking
 PM  - palm muting
\n/  - tremolo bar dip; n = amount to dip
 \n  - tremolo bar down
 n/  - tremolo bar up
/n\  - tremolo bar inverted dip
 =   - hold bend; also acts as connecting device for hammers/pulls
 <> - volume swell (louder/softer)
 x   - on rhythm slash represents muted slash
 o   - on rhythm slash represents single note slash

Misc Legend
-----------
 |  - bar
||  - double bar
||o - repeat start
o|| - repeat end
*|  - double bar (ending)
 :  - bar (freetime)
 $  - Segno
 &  - Coda
Tempo markers -  = BPM(8/16=s8/s16), where s8 = swing 8ths, s16 = swing 16ths


            
            
Suggest correction
Creating personal tab
Creating personal tab
You can edit any tab online and save it as your Personal.

You can edit, replace or remove any tab part or add personal notes – all changes will be seen only by you.

Personal tabs can be accessed anytime from any device, even offline.
Learn more »
comments
print report bad tab
4 comments total. Showing first comments.
+1 reply
Shane0s 10 May 23, 2009 05:53 PM

fantastic tab - epic song

+2 reply
edgy55 94 Feb 08, 2010 09:47 AM

Brilliant tab for a brilliant song, wicked job.

0 reply
metalz4life 212 Jul 24, 2012 10:29 PM

The Bbsus2 is actually "Bbadd2/6" which is (110011)

guest
You may want to rate the tab now too:
select rating
Wanna post a correction for this tab? Suggest correction