Oops, an error
Loading. Please wait.

Dark Matter bass

version 1
version 1

Whole song

Interactive

2,184 views 1 this week
1 commentread comment
1 2 3 4 5
x 3
add to favorites
×
Save as Personal and add changes to this tab that will be seen only by you. Learn more ›
×
You can save this tab as Personal to edit and correct it or add notes. All changes will be seen only by you. Learn more »
launch autoscroll
font size
0
reset
guitar tuner
edit
Autoscroll
slow
fast
+/-
esc
set tempo
stop
Author
Porcupine Tree - Dark matter
Song is in 7/8, these are just the notes, but the rhythm is easy
Also theres alot of sliding I didn't tab.
11 = 1-1, except in outtro, those are C#s
Not 100% sure on the faster part at the end

[0:54]
G|----------|
D|*---7---7*| x4 
A|*00---0--*|
E|----------|

[2:02]
G|--------------------------------------|
D|*---7---7----4---4----3---3----3---5-*| x2
A|*------------------------------------*|
E|-55---5---22---2---11---1---11---3----|

[2:16]
G|----------|
D|*---7---7*| x8 
A|*00---0--*|
E|----------|

[2:43]
G|-----|-------------------|
D|-----|*---7--------3----*| x2
A|-----|*-----------------*|
E|7-3-1|-55---5-3-11---1-3-|  


[3:10]
G|--------|
D|--------|
A|--------|
E|55-3-7-1|

[3:14]
G|--------------------------------------|
D|*---7---7----4---4----3---3----3---5-*| x2
A|*------------------------------------*|
E|-55---5---22---2---11---1---11---3----|

[3:42]
G|----------|
D|*---7---7*| x8 
A|*00---0--*|
E|----------|

[4:09]
G|-----|-------------------|
D|-----|*---7--------3----*| x2
A|-----|*-----------------*|
E|7-3-1|-55---5-3-11---1-3-|  


[4:36]
G|--------|
D|--------|
A|--------|
E|55-3-7-1|                                    
                                       
                       
[4:39]
G|--------------|
D|---7----------| x7
A|00------------|
E|-----3-5-3-5/8|

[5:08]
Rest

[5:37]
G|----------|
D|*---7---7*| x4 
A|*00---0--*|
E|----------|

[5:54]
G|--------------------------------------|
D|*---7---7----4---4----3---3----3---5-*| x2
A|*------------------------------------*|
E|-55---5---22---2---11---1---11---3----|

[6:19]
G|-------------------|
D|*---7--------3----*| x8
A|*-----------------*|
E|-55---5-3-11---1-3-|
  
[7:13]
G|------------5-----------|----------5---7---8--|
D|--7-----5-7---7----5-7--|--7---5-7---7---9---9|
A|0-----7---------7------7|0---7----------------|
E|------------------------|---------------------|

G|------------5-----------|---------------------|
D|--7-----5-7---7----5-7--|--7-------5----------|
A|0-----7---------7------7|0---787-3---0232-----|
E|------------------------|---------------------|

G|------------5-----------|----------5---7---8--|
D|--7-----5-7---7----5-7--|--7---5-7---7---9---9|
A|0-----7---------7------7|0---7----------------|
E|------------------------|---------------------|

G|------------5-----------|---------------------|
D|--7-----5-7---7----5-7--|--7------------------|
A|0-----7---------7------7|0---787-3------------|
E|------------------------|---------------------|

[7:40]

G|------------|
D|*---11---11*| x4 
A|*00-----0--*|
E|------------|

            
            
Suggest correction
Creating personal tab
Creating personal tab
You can edit any tab online and save it as your Personal.

You can edit, replace or remove any tab part or add personal notes – all changes will be seen only by you.

Personal tabs can be accessed anytime from any device, even offline.
Learn more »
Give kudos to tab author, rate the tab!
1 2 3 4 5
comments
print report bad tab
1 comment total.
+1 reply
PogoCow 226 Jul 28, 2011 07:37 PM

Nice job, but a few things:

-If you watch the live version from the DVD Anethetize, Colin only ever plays the open A string for the very last note. All the others he plays 5th fret on the E string.

-The riff played at 7:13 is played like this:

G|-------------5------------|-----------5---7---8---|
D|---7-----5-7---7----5-7---|---7---5-7---7---7---7-|
A|-------7---------7------7-|-----7-----------------|
E|-5------------------------|-5---------------------|

|-------------5------------|-------------------------|
|---7-----5-7---7----5-7---|---7---------7----------|
|-------7---------7------7-|-----7-8-7--------------|
|-5------------------------|-5----------8---5-7-8-7-|

-The last riff is played:
G|---------|
D|---------|
A|------4--|
E|-5-5-----|

Then finish by sliding down to that open A. :)

Awesome tab! Four stars.

guest
You may want to rate the tab now too:
select rating
Wanna post a correction for this tab? Suggest correction