Oops, an error
Loading. Please wait.

Jupiter Island bass

768 views 1 this week
2 commentsread comments
1 2 3 4 5
2 more votes to show rating
add to favorites
×
Save as Personal and add changes to this tab that will be seen only by you. Learn more ›
×
You can save this tab as Personal to edit and correct it or add notes. All changes will be seen only by you. Learn more »
launch autoscroll
font size
0
reset
guitar tuner
edit
Autoscroll
slow
fast
+/-
esc
set tempo
stop
Author
Difficulty
Song: Jupiter Island
Band: Porcupine Tree
Album: Tarquins Seaweed Farm

Ok, an older song, a simple riff but still an awesome song ^^
This is my first bass tab so yeah, sorry for any mistakes but I did work it out on 
a normal guitar.

You should be able to tell when to use these riffs and the rhythm to them.

G|-------------------------------------------------------------|
D|-------------------------------------------------------------|
A|------------------------------------4--4-4--4----------------|
E|---2--2-2--2--5--5-5--5--4--4-4--4---------------------------|




And the other riff

G|-------------------------------------------------------------|
D|-------------------------------------------------------------|
A|----7--7-7--7-5--5-5--4--4-4--4--4-4--4----------------------|
E|-------------------------------------------------------------|

            
            
Suggest correction
Creating personal tab
Creating personal tab
You can edit any tab online and save it as your Personal.

You can edit, replace or remove any tab part or add personal notes – all changes will be seen only by you.

Personal tabs can be accessed anytime from any device, even offline.
Learn more »
Give kudos to tab author, rate the tab!
1 2 3 4 5
comments
print report bad tab
2 comments total.
+1 reply
Saintonge 40 Mar 13, 2010 05:48 AM

I think on the "Other riff" it has more at the end. Maybe something like this.

G|-------------------------------------------------------------|
D|-------------------------------------------------------------|
A|----7--7-7--7-5--5-5--4-4-4-2-4-4-4-2-4-4-4-2-4-5-4-2--------|
E|-------------------------------------------------------------|

0 reply
nicholas72611 958 Apr 22, 2014 02:48 PM

The other riff sounds like this to me:

G|----------------------------------------------------------------|
D|----------9----------7------------------------------------------|
A|----7-7-7---9--5-5-5---2--4-4-4-2-4-4-4-2-4-4-4-2-4-5-4-2-------|
E|----------------------------------------------------------------|

guest
You may want to rate the tab now too:
select rating
Wanna post a correction for this tab? Suggest correction