Oops, an error
Loading. Please wait.

Lightbulb Sun bass

version 1
version 1

Whole song

Interactive

4,173 views 6 this week
no commentswrite comment
1 2 3 4 5
3 more votes to show rating
add to favorites
×
Save as Personal and add changes to this tab that will be seen only by you. Learn more ›
×
You can save this tab as Personal to edit and correct it or add notes. All changes will be seen only by you. Learn more »
launch autoscroll
font size
0
reset
guitar tuner
edit
Autoscroll
slow
fast
+/-
esc
set tempo
stop
Author

acoustic intro  0:00-0:48
|----------------------------------|
|----------------------------------|
|----------------------------------|
|--7-----------6----------------4--|


0:49-1:07
|-----------------------------------------|
|-----------------------------------------|
|--------2---2---4-2-----------2---2---4--|
|--4-4----4---4-------4-4----4---4---5----|

1:08-1:45

|-----------------------------------------------------------|
|--------6-----------6--------------------------------------|
|----6-9---9-6-----8---9-8\--------------4------------------|
|--7-----------6-9-------------4x4x4x-4h6---4x4x44----------|


1:46-2:04

|------------------------------------------|
|------------------------------------------|
|--------2---2---4-2-----------2---2---4---|
|--4-4-----4---4-------4-4----4---4---5----|


2:05-2:22

|-----------------------------|
|-----------------------------|
|----4------------------------|
|--------------5------------4-|
for the bridge colin improvises alot around these notes


2:23-2:43

|-----------------------------------------------------------|
|--------6-----------6--------------------------------------|
|----6-9---9-6-----8---9-8\--------------4------------------|
|--7-----------6-9-------------4x4x4x-4h6---4x4x44----------|


2:44-3:01

i dont think there's any bass in this part but if you wann play it any ways do this or 
it up an octave
|----------------------------------|
|----------------------------------|
|----------------------------------|
|--7-----------6----------------4--|


3:02-3:20
|------------------------------------------|
|------------------------------------------|
|--------2---2---4-2-----------2---2---4---|
|--4-4-----4---4-------4-4----4---4---5----|


3:21-3:39

|------------------------------|
|------------------------------|
|----4-------------------------|
|--------------5---------4-----|


3:40-4:17

|-----------------------------------------------------------|
|--------6-----------6--------------------------------------|
|----6-9---9-6-----8---9-8\--------------4------------------|
|--7-----------6-9-------------4x4x4x-4h6---4x4x44----------|


4:18- 5:30

|----------------------------------|
|----------------------------------|
|----------------------------------|
|--7-----------6----------------4--|

or

|---------------|
|--9----8-----6-|
|---------------|
|---------------|


when they play this song live colin usualy improvises alot of this so this tab is more 
a guideline
to hat you should play

            
            
Suggest correction
Creating personal tab
Creating personal tab
You can edit any tab online and save it as your Personal.

You can edit, replace or remove any tab part or add personal notes – all changes will be seen only by you.

Personal tabs can be accessed anytime from any device, even offline.
Learn more »
Give kudos to tab author, rate the tab!
1 2 3 4 5
comments
print report bad tab
guest
You may want to rate the tab now too:
select rating
Wanna post a correction for this tab? Suggest correction