Oops, an error
Loading. Please wait.
We have an official Open Car tab made by UG professional guitarists. Check out the tab »
×
5,698 views 1 this week
no commentswrite comment
1 2 3 4 5
x 3
add to favorites
×
Save as Personal and add changes to this tab that will be seen only by you. Learn more ›
×
You can save this tab as Personal to edit and correct it or add notes. All changes will be seen only by you. Learn more »
launch autoscroll
font size
0
reset
guitar tuner
backing track
0:00
0:00
edit
Autoscroll
slow
fast
+/-
esc
set tempo
stop
Band: Porcupine Tree
Song: Open Car
Tuning: Drop-D

Very excellent song, this is how I play it and it seems to work out pretty good, enjoy 
don't hesitate to correct! ^_^

Intro Riff:

G|--------------------------------------------------------------------|
D|--------------------------------------------------------------------|
A|--------------------------------------------------------------------|
D|-2-2-0-3---2-2-0-3---2-2-0-3--3---2-2-0-3---2-2-0-3---2-2-0-2-3-0---|

Verse Riff:

G|---------------------------------------------------------------------------|
D|--------------------------------------------------------------3------------|
A|----5-----3-------------------------5-----3---------5-----3-4--------------|
D|--0---3-4---0-0-2---2---0-2-3-0---0---3-4---0-0-2-----3-4------------------|

Chorus Riff:

G|---------------------------------------------------------------------------|
D|---------------------------------------------------------------------------|
A|-----5-5-3-3-1----1-1-0----0-0-0-----------0---5-5-3-3-1----1-1-0---0------|
D|------------------------------------0-00-----------------------------------|
(very tricky timing, bass plays in line with the lead, and then at other times it's a 
subtle background sound)

Order of the Day:
Intro  x3
Verse  x2
Intro  x2
Verse  x2
Pause while Keyboard does its thing
Chorus x1
Intro  x2
Verse  x2
Another Pause
Chorus x1
Rest during the acoustic wankery until end of song ^_^

            
            
Suggest correction
Creating personal tab
Creating personal tab
You can edit any tab online and save it as your Personal.

You can edit, replace or remove any tab part or add personal notes – all changes will be seen only by you.

Personal tabs can be accessed anytime from any device, even offline.
Learn more »
Give kudos to tab author, rate the tab!
1 2 3 4 5
comments
print report bad tab
guest
You may want to rate the tab now too:
select rating
Wanna post a correction for this tab? Suggest correction