Oops, an error
Loading. Please wait.
We have an official Open Car tab made by UG professional guitarists. Check out the tab »
×
5,278 views 1 this week
3 commentsread comments
1 2 3 4 5
x 4
add to favorites
×
Save as Personal and add changes to this tab that will be seen only by you. Learn more ›
×
You can save this tab as Personal to edit and correct it or add notes. All changes will be seen only by you. Learn more »
launch autoscroll
font size
0
reset
how to read this tab
guitar tuner
backing track
0:00
0:00
edit
Autoscroll
slow
fast
+/-
esc
set tempo
stop
e]--------------------------------------------------------------------------|
b]--------------------------------------------------------------------------|
g]--------------------------------------------------------------------------|
d]--------------------------------------------------------------------------|
a]--------------------------------------------------------------------------|
D]2-2-0-3--2-2-0-3--2-2-0-3-3--2-2-0-3--2-2-0-3--2-2-0-2-3-0----------------|

repeat as needed

e]--------------------------------------------------------------------------|
b]--------------------------------------------------------------------------|
g]--------------------------------------------------------------------------|
d]-------------2-0-2-3-2-------------------------3~-------------------------|
a]-5----3------2-0-2-3-2-----5---3-------5----3-4---------------------------|
D]0-3-4--4-3-2-2-0-2-3-2----0-3-4-4-3-2----3-4------------------------------|

repeat as needed
The rest of the song is just some very simple power chords
-enjoy

            
            
Suggest correction
Creating personal tab
Creating personal tab
You can edit any tab online and save it as your Personal.

You can edit, replace or remove any tab part or add personal notes – all changes will be seen only by you.

Personal tabs can be accessed anytime from any device, even offline.
Learn more »
comments
print report bad tab
3 comments total.
0 reply
shawj14 47 Aug 04, 2006 01:39 PM

nice job!

0 reply
porcupinetree11 101 Sep 11, 2007 04:08 AM

good job! (not that tough of a tab to find out how to do) either than that everything was perfect

0 reply
dragonreborn7 10 Jan 18, 2010 12:28 PM

this is kind of a waste of tab space,you tabbed everything well, but its not really worth having this up when the other tabs have exactly this and more....

guest
You may want to rate the tab now too:
select rating
Wanna post a correction for this tab? Suggest correction