Oops, an error
Loading. Please wait.

Remember Me Lover tab

version 2
version 2

Whole song

Interactive

616 views 9 this week
no commentswrite comment
1 2 3 4 5
2 more votes to show rating
add to favorites
×
Save as Personal and add changes to this tab that will be seen only by you. Learn more ›
×
You can save this tab as Personal to edit and correct it or add notes. All changes will be seen only by you. Learn more »
launch autoscroll
font size
0
reset
how to read this tab
guitar tuner
edit
Autoscroll
slow
fast
+/-
esc
set tempo
stop
-------------------------------------------------------------------------------
                             Remember Me Lover - Porcupine Tree
-------------------------------------------------------------------------------
Tabbed by: David Benitez
E-mail: debml700@gmail.com

Tuning: Drop D (No surprise there right?)

Hey guys, the rhythm on the clean verse bits are constantly changing, I did my best in tabbing it 
but there may be some implied notes here and there... listen to the song to get the dynamics correctly,
but this should be pretty accurate! Have fun and don’t forget to rate! :)

Intro
e|-------------------------------------------|
B|-------------------------------------------|
G|-------------------------------------------|
D|----7-----5------------4-----4------4/5----|
A|-0-------------0----5----(5)------5--------|
D|-------------------------------------------|

e|---------------------------------------------|
B|---------------------------------------------|
G|---------------------------------------------|
D|----7-----5----7+-------4-----4-------4\2----|
A|-0-----0------------------(5)-------5--------|
D|---------------------0-----------------------|

e|-------------------------------------------------|
B|---------------------7+--------------------------|
G|------------------7+-----------------------------|
D|----7-----5----7+-----------4------4------4/5----|
A|-0-----0-----------------------(5)------5--------|
D|-------------------------0-----------------------|

e|-------------------------------------------|
B|-------------------------------------------|
G|-------------------------------------------|
D|-----7----5----7+-------4----4------4\2----|
A|-0-----0-------------------5------5--------|
D|---------------------0---------------------|


Verse 1
e|-------------------------------------------|
B|-------------------------------------------|
G|-------------------------------------------|
D|-----7----5----7--------4----4------4/5----|
A|-0-----0-------------------5------5--------|
D|---------------------0---------------------|

e|--------------------------------------------|
B|--------------------------------------------|
G|------------------7+------------------------|
D|-----7----5----7+--------4----4------4\2----|
A|-0-----0--------------------5------5--------|
D|----------------------0---------------------|

e|-------------------------------------------|
B|-------------------------------------------|
G|-------------------------------------------|
D|-----7----5----7+-------4----4------4/5----|
A|-0-----0-------------------5------5--------|
D|---------------------0---------------------|

e|-------------------------------|
B|-------------------------------|
G|-------------------------------|
D|-----7----5----7+-------4----4-|
A|-0-----0-------------------5---|
D|---------------------0---------|

Chorus 1
e|---------------0----------------0--------------0--------------0--|
B|------------0-----0---------8------8-------7------7-------7------|
G|-7--6/9-----------------------9------9-------8------8-------8----|
D|-9--7/11------------11--10--------------9--------------9---------|
A|-----------------------------------------------------------------|
D|-----------------------------------------------------------------|

Verse 2
e|----------------------------------------------|
B|----------------------------------------------|
G|----------------------------------------------|
D|------7----5----5-7--------4----4------4/5----|
A|-0--0---0-----0--------------5------5---------|
D|-----------------------0----------------------|

e|--------------------------------------------|
B|--------------------------------------------|
G|--------------------------------------------|
D|------7----5---7+--------4----4------4\2----|
A|-0--0---0-------------------5------5--------|
D|-----------------------0--------------------|

e|----------------------------------------|
B|----------------------------------------|
G|----------------------------------------|
D|------7----5---------4----4------4/5----|
A|-0------0---------------5------5--------|
D|----------------0-----------------------|

Overdrive from that last bar
e|----------------------------------|--------|
B|----------------------------------|--------|
G|----------------------------------|--------|
D|------7----5---7---------4----4---|-4------|
A|-0------0-------------------5-----|-5-0----|
D|-----------------------0----------|--------|

Bridge thingy 1
e|----------3------------3---------------------------------------------|
B|------5-----------5------5-----------------0-------------0-----------|
G|--------4------------4------4---------2------2-------2-----2---------|
D|----5-------------------------5-----4----4-----4-------3------3------|
A|-3-------------3-----------------4----------------3-------------3----|
D|---------------------------------4----------------3------------------|

Verse 3 - There is another guitar playing the clean verse riff behind this
e|-0--------0----|
B|-0--------3----|
G|-2--------2----| x4
D|-2--------0----|
A|-0-------------|
D|---------------|

Chorus 2
e|---------------0----------------0--------------0--------------0--|
B|------------0-----0---------8------8-------7------7-------7------|
G|-7--6/9-----------------------9------9-------8------8-------8----|
D|-9--7/11------------11--10--------------9--------------9---------|
A|-----------------------------------------------------------------|
D|-----------------------------------------------------------------|

e|--------------------------------|
B|---------0-------------0--------|
G|----2------2------2------2------|
D|-------4-----4-------3-----3----|
A|-4-------------3----------------|
D|-4-------------3----------------|

Riff 1                                                                x4
e|--------------------------------------------|----------------------|---------------------------|
B|--------------------------------------------|----------------------|---------------------------|
G|--------------------------------------------|---4---------7--------|------------10-10----10----|
D|--------------------------------------------|-----2---------5------|-4--4--2-------------------|
A|-0h2-x-x-2--0h2-x-x-2--0h2-x-x-2--0h2-x-x-2-|-3-----3-3/6-----6----|-4--4--2----8--8-----8-----|
D|-0h2-x-x-2--0h2-x-x-2--0h2-x-x-2--0h2-x-x-2-|----------------------|-4--4--2-------------------|

This lead-ish thing enters at the third repetition
e|--------------------------|-------------------------|------------------------------------------|
B|--------------------------|-------------------------|------------------------------------------|
G|--------------------------|-------------------------|------------------------------------------|
D|--------------------------|-------------------------|------------------------------------------|
A|-2-----------------3--1---|-2-----------------3--6--|-4--4--2----2----5--5--3----3----(/7)-----|
D|------2----2--2-----------|------2----2--2----------|------------------------------------------|

Verse 4 - Back to clean
e|-------------------------------------------|
B|-------------------------------------------|
G|-------------------------------------------|
D|-----7----5---(7)-------4----4------4/5----|
A|-0-----0-------------------5------5--------|
D|---------------------0---------------------|

e|--------------------------------------------|
B|--------------------------------------------|
G|------------------7+------------------------|
D|-----7----5----7+--------4----4------4\2----|
A|-0-----0--------------------5------5--------|
D|----------------------0---------------------|

e|-------------------------------------------|
B|-------------------------------------------|
G|-------------------------------------------|
D|-----7----5----7-------------4------4/5----|
A|-0-----0-------------------5------5--------|
D|---------------------0---------------------|

e|---------------------------------------------|
B|---------------------------------------------|
G|------------------7+-------------------------|
D|-----7----5----7+---------4----4------4\2----|
A|-0-----0---------------------5------5--------|
D|-----------------------0---------------------|

e|---------------------------------------|
B|---------------------------------------|
G|---------------------------------------|
D|-----7----5---------4----4------4/5----|
A|-0-----0---------------5------5--------|
D|-----------------0---------------------|

Turn on overdrive at the last bar
e|----------------------------|--------|
B|----------------------------|--------|
G|----------------------------|--------|
D|-----7----5--------4----4---|-4------|
A|-0-----0--------------5-----|---0----|
D|-----------------0----------|--------|

Bridge thingy 2
e|----------3------------3---------------------------------------------|
B|------5-----------5------5-----------------0-------------0-----------|
G|--------4------------4------4---------2------2-------2-----2---------|
D|----5-------------------------5-----4----4-----4-------3------3------|
A|-3-------------3-----------------4----------------3-------------3----|
D|---------------------------------4----------------3------------------|

Verse 5 - There is another guitar playing the clean verse riff behind this
e|-0--------0----|
B|-0--------3----|
G|-2--------2----| x4
D|-2--------0----|
A|-0-------------|
D|---------------|

Chorus
e|---------------0----------------0--------------0--------------0--|
B|------------0-----0---------8------8-------7------7-------7------|
G|-7--6/9-----------------------9------9-------8------8-------8----|
D|-9--7/11------------11--10--------------9--------------9---------|
A|-----------------------------------------------------------------|
D|-----------------------------------------------------------------|

e|--------------------------------|
B|---------0-------------0--------|
G|----2------2------2------2------|
D|-------4-----4-------3-----3----|
A|-4-------------3----------------|
D|-4-------------3----------------|
                        
Riff 2                                                                x4
e|--------------------------------------------|----------------------|---------------------------|
B|--------------------------------------------|----------------------|---------------------------|
G|--------------------------------------------|---4---------7--------|------------10-10----10----|
D|--------------------------------------------|-----2---------5------|-4--4--2-------------------|
A|-0h2-x-x-2--0h2-x-x-2--0h2-x-x-2--0h2-x-x-2-|-3-----3-3/6-----6----|-4--4--2----8--8-----8-----|
D|-0h2-x-x-2--0h2-x-x-2--0h2-x-x-2--0h2-x-x-2-|----------------------|-4--4--2-------------------|

This lead-ish thing enters at the third repetition
e|--------------------------|-------------------------|------------------------------------------|
B|--------------------------|-------------------------|------------------------------------------|
G|--------------------------|-------------------------|------------------------------------------|
D|--------------------------|-------------------------|------------------------------------------|
A|-2-----------------3--1---|-2-----------------3--6--|-4--4--2----2----5--5--3----3----(/7)-----|
D|------2----2--2-----------|------2----2--2----------|------------------------------------------|


Riff 3 - Clean
e|--------------------------------------------------------|
B|--------------------------------------------------------|
G|-------------------------------------------4-----7------| x2
D|---------------------------------------------2/5---5----|
A|----4h5--4-------3-----2-------4h5--4--0h3--------------|
D|-0-----------0h3---0h2---2--0---------------------------|

Riff 3 - w/ Distortion
e|--------------------------------------------------------|
B|--------------------------------------------------------|
G|-------------------------------------------4-----7------| x10
D|---------------------------------------------2/5---5----|
A|----4h5--4-------3-----2-------4h5--4--0h3--------------|
D|-0-----------0h3---0h2---2--0---------------------------|


Lead - enters at third repetition of the bar above
e|------------------------|---------------------------|
B|-15----16--15----14--11-|---------------------------|
G|------------------------|-14----15--14----13--10----| x2 each
D|-12----13--12----11--8--|---------------------------|
A|------------------------|-12----13--12----11--8-----|
D|------------------------|---------------------------|


************************************

| /   slide up
| \   slide down
| h   hammer-on
| p   pull-off
| ~   vibrato
| +   harmonic
| x   Mute note
| b   Bend
| pb  Pre-bend
| br  Bend release
| pbr Pre-bend release
| brb Bend release bend

************************************

            
            
Suggest correction
Creating personal tab
Creating personal tab
You can edit any tab online and save it as your Personal.

You can edit, replace or remove any tab part or add personal notes – all changes will be seen only by you.

Personal tabs can be accessed anytime from any device, even offline.
Learn more »
Give kudos to tab author, rate the tab!
1 2 3 4 5
comments
print report bad tab
guest
You may want to rate the tab now too:
select rating
Wanna post a correction for this tab? Suggest correction