Oops, an error
Loading. Please wait.

Remember Me Lover tab

version 1
version 1

Whole song

Interactive

7,823 views 12 this week
4 commentsread comments
1 2 3 4 5
x 4
add to favorites
×
Save as Personal and add changes to this tab that will be seen only by you. Learn more ›
×
You can save this tab as Personal to edit and correct it or add notes. All changes will be seen only by you. Learn more »
launch autoscroll
font size
0
reset
how to read this tab
guitar tuner
edit
Autoscroll
slow
fast
+/-
esc
set tempo
stop
Author
Pretty Sure its in Standard.
First tab, yay. If someone figures out the lead in the Prechorus and Chorus, i will be 
grateful.
This should get you through the basics of the song tho:


Verse:

e|---------------------------------------|
B|---------------------------------------|
G|---------------------------------------|
D|------7----5------4----4h5-------------|
A|---0-----0----0-5---5------------------|
E|---------------------------------------|

e|---------------------------------------|
B|---------------------------------------|
G|---------------------------------------|
D|------7----5------4----4s2-------------|
A|---0-----0----0-5---5------------------|
E|---------------------------------------|

This is the little fill thing just before the prechorus, sounds like two strings, but 
is all ive got so far.

e|--------------|
B|--------------|
G|--------------|
D|--9--7--7s11--|
A|--------------|
E|--------------|

Bridge (or interlude or prechorus, or whatever you want to call it) :

Dunno about the lead part
But chords are:

   A      C      E?       B

Chorus:

Again I havent figured out the lead but chords are just

   A     D     A     D

Lyrics:

Verse:

I didn't want to feel like a slave to your mood swings
And I'm not saying anything I wouldn't say behind your back
And all this shit could have happened to anyone
All that matters now is how you gonna pick it up to throw it back

Bridge?:

It's so hard to get along
I always know what you're gonna say
This too: I hated you
I wish you'd learn to keep your mouth shut

Verse 2:

I never meant to start anything that I couldn't finish
Now I gotta be the one to turn away, it's time to react
I meant every word that I said, yeah I really did
But you gotta understand that I was sleeping then
So relax

Chorus:

I walked away, now remember me lover
I told you lies, now remember me lover
I took your money, remember me lover
I ruined your life, now remember me lover

Bridge:

It's so hard to get along
I always know what you're gonna say
This too: I hated you
I wish you'd learn to keep your mouth shut

Verse 3:

I've been through this with you about a hundred times
Agree to disagree, start again, with our lives
Then every single morning I wake up and you're still there
But tomorrow you will be alone and that is all you deserve

Chorus:

I walked away, now remember me lover
I told you lies, now remember me lover
I took your money, remember me lover
I ruined your life, now remember me lover

Bridge:

It's so hard to get along
I always know what you're gonna say
This too: I hated you
I wish you'd learn to keep your mouth shut

            
            
Suggest correction
Creating personal tab
Creating personal tab
You can edit any tab online and save it as your Personal.

You can edit, replace or remove any tab part or add personal notes – all changes will be seen only by you.

Personal tabs can be accessed anytime from any device, even offline.
Learn more »
comments
print report bad tab
4 comments total. Showing first comments.
0 reply
vicking67 52 May 14, 2014 10:18 AM

what about D G D Am on the chorus? rest seems good!

0 reply
xplozivetalen 10 Jun 02, 2016 09:40 AM

I feel this is the intro...

e|--------------------------------|
B|--------------------------------|
G|--------------------------------|
D|------5-------4--4h5------------|
A|---0-------0----0---------------|
E|--------------------------------|

e|--------------------------------|
B|--------------------------------|
G|--------------------------------|
D|------5-------4--4s2------------|
A|---0-------0----0---------------|
E|--------------------------------|

0 reply
xplozivetalen 10 Jun 02, 2016 09:41 AM

I feel this is the intro...

e|--------------------------------|
B|--------------------------------|
G|--------------------------------|
D|------5-------4--4h5------------|
A|---0-------0----0---------------|
E|--------------------------------|

e|--------------------------------|
B|--------------------------------|
G|--------------------------------|
D|------5-------4--4s2------------|
A|---0-------0----0---------------|
E|--------------------------------|

guest
You may want to rate the tab now too:
select rating
Wanna post a correction for this tab? Suggest correction