Oops, an error
Loading. Please wait.

Stars Die bass

566 views 3 this week
no commentswrite comment
1 2 3 4 5
3 more votes to show rating
add to favorites
×
Save as Personal and add changes to this tab that will be seen only by you. Learn more ›
×
You can save this tab as Personal to edit and correct it or add notes. All changes will be seen only by you. Learn more »
launch autoscroll
font size
0
reset
guitar tuner
edit
Autoscroll
slow
fast
+/-
esc
set tempo
stop
Author
Difficulty
From the album "The Sky Moves Sideways"
This is my first tab and I would just like to say that I only want to make this piece as
simple as possible. Collin Edwin is one of my main inspirations to play bass as any
bass line he comes up with is extremely juicy. In this song, Collin improvises a bit so
if you mix up any of the variations (as in play Variation #2 and #3 etc.) it will still sound
good. So don't be discouraged to play strictly the way the song is. Just play whatever
variation you feel is right and go for it. Ive organized the variations and chorus's like
so just to not mix you up by putting things all over. Ive thought of tabbing the entire 
song but that would just take lots of time but the tabs below is basically a map of what to
play. I recommend listening to the song for the rhythm (obviously) and to spot any other
variation I've missed. Enjoy and have lots of fun.

(Main Riff):
G|-------------------------------------------------------------------|
D|---------9/10\9----------------------------------------------------|
A|--7--7-----------10------------------------------------------------|
E|---------------------8--8----8--10\7--7----7--10--8--8----8-10-----|

(Variation #1):
G|-----------------------------------------|
D|-----------------------------------------|
A|---------------10------------------------|
E|--7--7------7-----10--8--8----8--10------|

Instead of playing [ 7--7----7--10--8--8----8-10--- ]

(Variation #2):
G|----------------------------------------------------------|
D|----------------------------------------------------------|
A|-------------10-------------------------------------------|
E|--8--8----8------7--7----7--10--7--8--8--8----8--10--8----|

(Variation #3):
G|-------------------------------------------------------------|
D|-------------------------------------------------------------|
A|-------------------------------------------------------------|
E|--8--8----8--10--8--7--7--7----7--10\8--8--8----8--10--8-----|

(#2 & #3) Instead of playing [ 8--8----8--10\7--7----7--10--8--8----8-10--- ]

(Variation #4): (At around 1:50)
G|--------------------------------------------|
D|----------------9---------------------------|
A|--------------------------------------------|
E|--7--7------7-------7--8----8----10--8------|

(Chorus #1):
G|----------------------------------------------------------------|
D|----------------------------------------------------------------|
A|-----5--5--5-------5--5--5-----5----3--3--3-------3--3--3-------|
E|--5-------------5-----------5------------------3----------------|

G|-----------------------------------------------------------------|
D|-----------------------------------------------------------------|
A|-----5--5--5-------5--5--5----------3--3--3----3--3--3----3--5---|
E|--5-------------5-------------5--3-------------------------------|

(Chorus #2):
G|-----------------------------------------------------------------------|
D|-----------------------------------------------------------------------|
A|-----5--5--5-------5--5--5-------3--3--3-------3--3--3-------5--5--5---|
E|--5-------------5-------------3-------------3-------------5------------|

G|-----------------------------------------------|
D|--------------7----------------5---------------|
A|-----5--5--5--------3--3--3-------3--3--3------|
E|--5--------------3-----------------------------|

(Chorus #3): [slight variation]
G|-----------------------------------------------------------------------|
D|-----------------------------------------------------------------------|
A|--5--5--5-------5-----5--5--5-------5-----3--3--3--3-------3--3--3-----|
E|--------5----5-----5-------------5-----5-----------3----3--------------|

(Breakdown): (Right after Chorus #2)
G|-------------|
D|-------------|
A|--5----7-----|
E|-------------|

(This part starts at around 3:10)
G|-----------------------------------------------------------------------|
D|--10-------------------------------------------8--9-----12--9--8-------|
A|-----------------7----7----9/10----------10----------------------------|
E|--------8----10------------------7--8----------------------------------|

(Main Riff Variation): (After the breakdown)
G|-------------------------------------------------------------------------------------|
D|--------9/10\9-----------------10----7--9------------9-----9--10---------------------|
A|--7--7----------10-------------------------------------------------------------------|
E|--------------------8--8--8------------------7--7-------7---------8--8----10--8--10--|

(Ending): (Right after the Main RIff)
G|------------------------|
D|------------------------|
A|------------------7-----|
E|--8/10----8/10----------|

Order Played:
0:17 - (Main Riff) x4 (with Variation put after playing the 10th fret on the A string)

1:00 - (Chorus #1)

1:23 - (Main Riff) |x4|

2:07 - (Chorus #2)

2:29 - (Breakdown)

3:21 - (Main Riff Variation) |x4| (after the variation, play the Main Riff x3 with any
other variation)

4:04 - (Chorus #3)

4:27 - (Main Riff) |x2| (the only thing you will have to do is to play the beginning
slightly faster)

4:48 - (Ending)

            
            
Suggest correction
Creating personal tab
Creating personal tab
You can edit any tab online and save it as your Personal.

You can edit, replace or remove any tab part or add personal notes – all changes will be seen only by you.

Personal tabs can be accessed anytime from any device, even offline.
Learn more »
Give kudos to tab author, rate the tab!
1 2 3 4 5
comments
print report bad tab
guest
You may want to rate the tab now too:
select rating
Wanna post a correction for this tab? Suggest correction