Oops, an error
Loading. Please wait.

The Sky Moves Sideways tab

3,985 views 3 this week
no commentswrite comment
1 2 3 4 5
2 more votes to show rating
add to favorites
×
Save as Personal and add changes to this tab that will be seen only by you. Learn more ›
×
You can save this tab as Personal to edit and correct it or add notes. All changes will be seen only by you. Learn more »
launch autoscroll
font size
0
reset
how to read this tab
guitar tuner
edit
Autoscroll
slow
fast
+/-
esc
set tempo
stop
Author
                                      --The Sky Moves Sideways [Phase One]-- 


Tabbed by: billzano 
E-mail for questions, suggestions etc. :billzano@hotmail.com

!!!!!! I have No Idea if this tab is right or wrong or if it has mistakes… so 
please rate because I want to know if I wasted my time !!!!!!! 


a) The Colour of Air
[Instrumental] [0:00]-[4:39]  

b) I find that I'm not there          (the tabbed part of the whole song)


Fade In at [4:40]

Verse 1:                                                            
We lost the skyline                                         
We stepped right off the map                     
Drifted into blank space                            
And let the clocks relapse  
                                
Verse 2:
We laughed the rain down                       
Slow burn on the lawn                                
Ghosts across the delta                                 
Swallowed up the storm                                                                

Chorus:                        
 Dsus2                         Am                                     
   Sometimes I feel like a fist 
 Dsus2                             Am
   Sometimes I am the colour of air  
                      
Sometimes it's only afterwards

I find that I'm not there


Guitar Solo 1 (*) 


Verse 3:
In the dream dusk                  \                                   
We walked beside the lake           \ ___Guitar Solo(**)                 
We watched the sky move sideways    /
And heard the evening break        /                  

Chorus: 
Dsus2                           Am
   Sometimes I feel like a fist
Dsus2                               Am
   Sometimes I am the colour of air

Sometimes it's only afterwards

I find that I'm not there


Fade Out at [8:26]


(*) Guitar Solo 1:

6:31 :
e |-------------------------------------------|
B |-------------------------------------------|
G |-------16b-12-12-12s14---------------------|
D |-------------------------------------------|
A |-------------------------------------------|
E |-------------------------------------------|

6:37 :
e |-------------------------------------------|
B |-------------------------------------------|
G |-----------------12—13h15-12---------------|                             
D |-------13-14-------------(13)--------------|               
A |----14-------------------------------------|
E |-------------------------------------------|

6:41 :
e |--------------------------------------------|
B |--------------------------------------------|
G |---11s12-------14---------------------------|
D |-----------12-------12----------------------|               
A |--------------------------------------------|
E |--------------------------------------------|

6:46 :
e |--------------------------------------------|
B |--------------------------------------------|
G |-----14b----13------------------------------|
D |---------12---------------------------------|
A |--------------------------------------------|
E |--------------------------------------------|

6:49 :
e |--------------------------------------------|
B |--------------------------------------------|
G |----14b-------------------------------------|
D |----------13--11---12h14--------------------|
A |--------------------------------------------|
E |--------------------------------------------|

6:53 :
e |--------------------------------------------|
B |--------------------------------------------|
G |----12p11h12p11h12--------------------------|
D |--------------------------------------------|
A |--------------------------------------------|
E |--------------------------------------------|

6:57 :
e |--------------------------------------------|
B |--------------------------------------------|
G |-----15b14----------------------------------|
D |---------------12-13h14---------------------|
A |--------------------------------------------|
E |--------------------------------------------|

Guitar Solo 1 End 


(**) Guitar Solo 2:

In the dream dusk…
7:10 :
e |----------------------------------------|                                 
B |----------------------------------------|
G |--9h11----------------------------------|
D |----------------------------------------|
A |----------------------------------------|
E |----------------------------------------|

We walked…
7:14 :
e |-----------------------------------|
B |-----------------------------------|
G |----15p14p13----10b8s11------------|    …beside the lake                  
D |-----------------------------------|
A |-----------------------------------|
E |-----------------------------------|


We watched the sky move sideways…
7:28 :
e |-------------------------------------------|
B |-------------------------------------------|
G |----9h10p9h10p9h10-------------------------|           And heard…
D |-------------------------------------------|
A |-------------------------------------------|
E |-------------------------------------------|


…the evening break                   
7:33 :
e |-------------------------------------------|
B |-----12p11----9-9---9~---------------------|
G |-------------------------------------------|
D |-------------------------------------------|
A |-------------------------------------------|
E |-------------------------------------------|

Guitar Solo 2 End 

c) Wire the Drum
[Instrumental] [8:27]-[14:50]

d) Spiral Circus
[Instrumental] [14:51]-[18:43]
 
Note: I am not sure about the chords in the choruses in the first two lines 
(Sometimes I feel like a fist… Sometimes I am the colour of air) and i couldn’t 
tab the apreggio in the choruses in the last two lines (Sometimes it's only 
afterwards
… I find that I'm not there)

Very beautiful song from Porcupine Tree. Great piece of music in each of their 
albums…
They are a thousand miles ahead especially Steven Wilson. 
Suggestion: Check out no-man, Steven Wilson’s collaboration with Tim Bowness. 
Awesome but very underrated group and for me they count as much as Porcupine Tree.bb.


            
            
Suggest correction
Creating personal tab
Creating personal tab
You can edit any tab online and save it as your Personal.

You can edit, replace or remove any tab part or add personal notes – all changes will be seen only by you.

Personal tabs can be accessed anytime from any device, even offline.
Learn more »
Give kudos to tab author, rate the tab!
1 2 3 4 5
comments
print report bad tab
guest
You may want to rate the tab now too:
select rating
Wanna post a correction for this tab? Suggest correction