Oops, an error
Loading. Please wait.

The Sound Of Muzak tab

version 2
version 2

Whole song

Interactive

37,371 views 39 this week
2 commentsread comments
1 2 3 4 5
x 14
add to favorites
×
Save as Personal and add changes to this tab that will be seen only by you. Learn more ›
×
You can save this tab as Personal to edit and correct it or add notes. All changes will be seen only by you. Learn more »
launch autoscroll
font size
0
reset
how to read this tab
guitar tuner
backing track
0:00
0:00
edit
Autoscroll
slow
fast
+/-
esc
set tempo
stop
#----------------------------------PLEASE NOTE---------------------------------#
#This file is the author's own work and represents their interpretation of the #
#song. You may only use this file for private study, scholarship, or research. #
#------------------------------------------------------------------------------#

THE SOUND OF MUZAK
As recorded by Porcupine Tree
(From the 2002 Album IN ABSENTIA)

Transcribed by Zac Meadows and Erik Dietrich
        

Words and Music by Steven Wilson
Arranged by Porcupine Tree

Gtr I (D A D G B E) - 'Acoustic Left'
Gtr II (D A D G B E) - 'Distorted Center'
Gtr III (D A D G B E) - 'Partially Distorted Left'
Gtr IV (D A D G B E) - 'Partially Distorted Right'
Gtr V (D A D G B E) - 'Acoustic Right'

   Intro/Verse #1
    Q=100
    D5           Dm7/F Gm/Eb
   7/4
    Gtrs I, V
    E. S +S  E S S S E E. S +S  E S +S  S E E E
||----------------------------------------------|
||o---------------------------------------------|
||--------------------------------0-(0)---------|
||-----------0-------0----------0-------0---1-0-|
||o----0-(0)-------3------1-(1)-----------1-----|
||--0----------0h3-----1------------------------|


  D5           Dm7/F Gm/Eb
  E. S +S  E S S S E E. S +S  E S +S  S E E E    5x
|------------------------------------------------||
|-----------------------------------------------o||
|-------------------------------0-(0)------------||
|----------0-------0----------0-------0---1-0----||
|----0-(0)-------3------1-(1)-----------1-------o||
|-0----------0h3-----1---------------------------||


   Chorus #1
    Asus4                            Dm9
   4/4
    Gtr IV
    W                                E. S +E    E +Q        Q
||--0------------------------------|------------3-(3)------------------|
||o-3------------------------------|----6-(6)---------------6----------|
||--2------------------------------|-5---------------------------------|
||--0------------------------------|-----------------------------------|
||o--------------------------------|-----------------------------------|
||---------------------------------|-----------------------------------|
|
|   Gtrs I, V
|   E. S +S  E S +S  S E E  S   S    E. S  S  S E +S  S S S S  S  S S
||--0--0-(0)-0-0-(0)-0-0-0--0--(0)-|-0--0--0--0-0-(0)-0-0-0-0--0--x-x--|
||o-3--3-(3)-3-3-(3)-3-3-3--3--(3)-|-6--6--6--6-6-(6)-6-6-6-6--6--x-x--|
||--2--2-(2)-2-2-(2)-2-2-2--2---2--|-5--5--5--5-5-(5)-5-5-5-5-(5)-x-x--|
||--0--0-(0)-0-0-(0)-0-0-0-(0)--0--|-0--0--0--0-0-(0)-0-0-0-0-(0)-x-x--|
||o-0--0-(0)-0-0-(0)-0-0-0-(0)--0--|-----------------------------------|
||---------------------------------|-----------------------------------|


  Em7/C                               G7sus4/Bb
   Q.         E   +H                  E. S +E    E +H
|-------------3---(3)---------------|----1-(1)----------------------------||
|-(1)---------3---(3)---------------|------------3-(3)-------------------o||
|-------------0---(0)---------------|-3-----------------------------------||
|-------------2---(2)---------------|-------------------------------------||
|-----------------------------------|------------------------------------o||
|-----------------------------------|-------------------------------------||
|
|  E. S +S  E   S +S  S E E  S   S    E. S  S  S E +S  S S S S S  S   S
|--3--3-(3)-3---3-(3)-3-3-3--3--(3)-|-1--1--1--1-1-(1)-1-1-1-1-1--1--(1)--||
|--3--3-(3)-3---3-(3)-3-3-3--3--(3)-|-1--1--1--1-1-(1)-1-1-1-1-1--1--(1)-o||
|--0--0-(0)-0---0-(0)-0-0-0--0---0--|-0--0--0--0-0-(0)-0-0-0-0-0--0---0---||
|--2--2-(2)-2---2-(2)-2-2-2-(2)--2--|-0--0--0--0-0-(0)-0-0-0-0-0-(0)--0---||
|--3--3-(3)-3---3-(3)-3-3-3-(3)--3--|-1--1--1--1-1-(1)-1-1-1-1-1-(1)--1--o||
|-----------------------------------|-------------------------------------||


   Pre-Verse/Verse #2
    D5           Dm7/F Gm/Eb
   7/4
    Gtr III
    W                        E.   S +S  S S S S S E
||--------------------------------3-(3)---1p0-------|
||o-------------------------------------3-----3---3-|
||----------------------------------------------0---|
||--------------------------------------------------|
||o-------------------------------------------------|
||--------------------------------------------------|
|
|   E. S +S  E S S S E E. S +S  E S +S  S E   E   E
||--------------------------------------------------|
||o-------------------------------------------------|
||--------------------------------0-(0)-------------|
||-----------0-------0----------0-------0-----1---0-|
||o----0-(0)-------3------1-(1)-----------1---------|
||--0----------0h3-----1----------------------------|


  D5           Dm7/F Gm/Eb
  Gtr IV
  W                        E.   S +S  S S S S S E  3x
|-------------------------------3-(3)---1p0--------||
|-------------------------------------3-----3---3-o||
|---------------------------------------------0----||
|--------------------------------------------------||
|-------------------------------------------------o||
|--------------------------------------------------||
|
| E. S +S  E S S S E E. S +S  E S +S  S E   E   E  3x
|--------------------------------------------------||
|-------------------------------------------------o||
|-------------------------------0-(0)--------------||
|----------0-------0----------0-------0-----1---0--||
|----0-(0)-------3------1-(1)-----------1---------o||
|-0----------0h3-----1-----------------------------||


    D5           Dm7/F Gm/Eb
    Gtr III
    W                        E.   S +S  S S S S S E
||--------------------------------3-(3)---1p0-------|
||o-------------------------------------3-----3---3-|
||----------------------------------------------0---|
||--------------------------------------------------|
||o-------------------------------------------------|
||--------------------------------------------------|
|
|   E. S +S  E S S S E E. S +S  E S +S  S E   E   E
||--------------------------------------------------|
||o-------------------------------------------------|
||--------------------------------0-(0)-------------|
||-----------0-------0----------0-------0-----1---0-|
||o----0-(0)-------3------1-(1)-----------1---------|
||--0----------0h3-----1----------------------------|


  D5           Dm7/F Gm/Eb
  W                        E.   S +S  S S S S S E
|-------------------------------3-(3)---1p0----------||
|-------------------------------------3-----3---3---o||
|---------------------------------------------0------||
|----------------------------------------------------||
|---------------------------------------------------o||
|----------------------------------------------------||
|
| E. S +S  E S S S E E. S +S  E S +S  S E   E   E
|----------------------------------------------------||
|---------------------------------------------------o||
|-------------------------------0-(0)----------------||
|----------0-------0----------0-------0-----1---0----||
|----0-(0)-------3------1-(1)-----------1-----------o||
|-0----------0h3-----1-------------------------------||


   Chorus #2
    Asus4                            Dm9
   4/4
    Gtr IV
    W                                E. S +E    E +Q        Q
||--0------------------------------|------------3-(3)------------------|
||o-3------------------------------|----6-(6)---------------6----------|
||--2------------------------------|-5---------------------------------|
||--0------------------------------|-----------------------------------|
||o--------------------------------|-----------------------------------|
||---------------------------------|-----------------------------------|
|
|   E. S +S  E S +S  S E E  S   S    E. S  S  S E +S  S S S S  S  S S
||--0--0-(0)-0-0-(0)-0-0-0--0--(0)-|-0--0--0--0-0-(0)-0-0-0-0--0--x-x--|
||o-3--3-(3)-3-3-(3)-3-3-3--3--(3)-|-6--6--6--6-6-(6)-6-6-6-6--6--x-x--|
||--2--2-(2)-2-2-(2)-2-2-2--2---2--|-5--5--5--5-5-(5)-5-5-5-5-(5)-x-x--|
||--0--0-(0)-0-0-(0)-0-0-0-(0)--0--|-0--0--0--0-0-(0)-0-0-0-0-(0)-x-x--|
||o-0--0-(0)-0-0-(0)-0-0-0-(0)--0--|-----------------------------------|
||---------------------------------|-----------------------------------|


  Em7/C                               G7sus4/Bb
   Q.         E   +H                  E. S +E    E +H                     4x
|-------------3---(3)---------------|----1-(1)----------------------------||
|-(1)---------3---(3)---------------|------------3-(3)-------------------o||
|-------------0---(0)---------------|-3-----------------------------------||
|-------------2---(2)---------------|-------------------------------------||
|-----------------------------------|------------------------------------o||
|-----------------------------------|-------------------------------------||
|
|  E. S +S  E   S +S  S E E  S   S    E. S  S  S E +S  S S S S S  S   S   4x
|--3--3-(3)-3---3-(3)-3-3-3--3--(3)-|-1--1--1--1-1-(1)-1-1-1-1-1--1--(1)--||
|--3--3-(3)-3---3-(3)-3-3-3--3--(3)-|-1--1--1--1-1-(1)-1-1-1-1-1--1--(1)-o||
|--0--0-(0)-0---0-(0)-0-0-0--0---0--|-0--0--0--0-0-(0)-0-0-0-0-0--0---0---||
|--2--2-(2)-2---2-(2)-2-2-2-(2)--2--|-0--0--0--0-0-(0)-0-0-0-0-0-(0)--0---||
|--3--3-(3)-3---3-(3)-3-3-3-(3)--3--|-1--1--1--1-1-(1)-1-1-1-1-1-(1)--1--o||
|-----------------------------------|-------------------------------------||


 Interlude
  D5           F6    G5/C                 Em7/G
 7/4
  Gtr III
  E. S +S  E S S S E E. S +S  E S +S  S S S S S E
|-------------------------------3-(3)---1p0-------|
|----------3-------3----------3-------3-----3---3-|
|----2-(2)-------0------0-(0)-----------------0---|
|-0----------0h3----------------------------------|
|--------------------3----------------------------|
|-------------------------------------------------|
|
| Gtr V
| W
|-------------------------------------------------|
|-------------------------------------------------|
|-------------------------------------------------|
|-------------------------------------------------|
|-------------------------------------------------|
|-------------------------------------------------|


  D5           F6    G5/C                 Em7/G
  E. S +S  E S S S E E. S +S  E S +S  S S S S S E
|-------------------------------3-(3)---1p0--------|
|----------3-------3----------3-------3-----3---3--|
|----2-(2)-------0------0-(0)-----------------0----|
|-0----------0h3-----------------------------------|
|--------------------3-----------------------------|
|--------------------------------------------------|
|
| W                        E.   S +S  S S S S S E
|-------------------------------3-(3)---1p0--------|
|-------------------------------------3-----3---3--|
|---------------------------------------------0----|
|--------------------------------------------------|
|--------------------------------------------------|
|--------------------------------------------------|


 Guitar Solo
  D5             F6    G5/C                    Em7/G
 7/4
  Gtrs III, V
  E.   S +S  E S S S E E.    S +S  E S +S  S S S S S E
|------------------------------------3-(3)---1p0-------|
|------------3-------3-------------3-------3-----3---3-|
|------2-(2)-------0---------0-(0)-----------------0---|
|-0------------0h3-------------------------------------|
|----------------------3-------------------------------|
|------------------------------------------------------|
|
| Gtr II
|   ~~~~~~~~~                                        ~~~
| S E.   +H            E  E     Q.           S S E   E
|------------------------------------------------------|
|------------------------------------------------------|
|----------------------5-------------------------------|
|-5h7----(7)--------------5\---------------------------|
|--------------------------------------------8p5-5---5-|
|------------------------------------------------------|


  Gsus2         Em7       G5/F                     Em7/G
   E. S +S  E S  S  S E   E.     S +S  E  S +S S S S S S E
|-----------------------------------------3-(3)--1p0----------|
|-----------3---------3----------------3-------3-----3---3----|
|-----2-(2)---------0------------0-(0)-----------------0------|
|-------------0h=2--------3-----------------------------------|
|-------------------------------------------------------------|
|--5----------------------------------------------------------|
|
|~~~~~~~~~~~~~~~~~~~                   ~~
| +H            +E.     S S  S S S  S  E.    S S Q.
|-------------------------------------------------------------|
|--------------------------------------------5h6--------------|
|-----------------------------------5--7----------------------|
|----------------------------3-5-7----------------------------|
|-(5)-----------(5)-----3-5-----------------------------------|
|-------------------------------------------------------------|


  D5                 F6        G5/C                   Em7/G
  E.     S +S  E   S  S  S E   E. S +S  E   S +S  S S S S S  E
|-------------------------------------------3-(3)---1p0---------|
|--------------3-----------3------------3---------3-----3----3--|
|--------2-(2)-----------0--------0-(0)-------------------0-----|
|-0----------------0h=3-----------------------------------------|
|------------------------------3--------------------------------|
|---------------------------------------------------------------|
|
|                                                         ~~~~~~~
| S  S S S  S  S S S +E    S S Q     S  S S S +E    S S S S +E
|------------------8-(8)--------------------8-(8)---------------|
|--------------5h6---------6p5----------5h6---------6p5---------|
|--------5--7-------------------------------------------7-9-(9)-|
|----5-7--------------------------------------------------------|
|---------------------------------------------------------------|
|---------------------------------------------------------------|


  Gsus2              Em7   G5/F                           Em7/G
   E.   S +S   E   S S S E E.     S  +S  E    S  +S  S  S S S S E
|---------------------------------------------3--(3)----1p0-------|
|--------------3---------3---------------3-----------3------3---3-|
|-------2-(2)----------0----------0--(0)----------------------0---|
|------------------0h2-----3--------------------------------------|
|-----------------------------------------------------------------|
|--5--------------------------------------------------------------|
|
|~~~~~  ~~~~~~~
| +E  S S +E     E   Q     E   S  E.        S E.        E   Q
|---------------------------------------------8-------------8-----|
|------------------------------------------10----------10---------|
|-(9)-7-7-(7)\----------------10-12-------------------------------|
|-----------------------------------------------------------------|
|-----------------------------------------------------------------|
|-----------------------------------------------------------------|


  D5                 F6    G5/C                                   Em7/G
    E.  S  +S   E  S S S E E.           S +S  E         S +S  S S S S    S  E
|-------------------------------------------------------3-(3)---1p0------------|
|---------------3--------3--------------------3---------------3-----3-------3--|
|-------2--(2)---------0----------------0-(0)----------------------------0-----|
|---0--------------0h3---------------------------------------------------------|
|--------------------------3---------------------------------------------------|
|------------------------------------------------------------------------------|
|
|       ~~                       ~~~~~~~
|   E.  S  +S   E.   Q     E    +E        +E    +T  +T  s  Q        E      +E
|-/10--10-(10)\----------------------------------------------------------------|
|--------------------------8b10r(8)b10====(8)---(8)r(8)p6-----------5b6====(5)-|
|------------------------------------------------------------------------------|
|------------------------------------------------------------------------------|
|------------------------------------------------------------------------------|
|------------------------------------------------------------------------------|


  Gsus2                    Em7   G5/F                 Em7/G
   E.      S   +S  E     S S S E E. S +S  E S +S  S S S S S E
|-------------------------------------------3-(3)---1p0----------|
|------------------3-----------3----------3-------3-----3---3----|
|----------2---(2)-----------0------0-(0)-----------------0------|
|------------------------0h2-----3-------------------------------|
|----------------------------------------------------------------|
|--5-------------------------------------------------------------|
|
|                                         ~    ~~~~~~~~
|      |--3--|
| +E   S S   S  E    +S  S E   E Q     S  e S  e    e   S S S S
|----------------------------------------------------------------|
|-(5)r-5----------------------------------------------------6----|
|--------7p==5--7----(7)-5----------------5----5----5---5h7---7--|
|--------------------------0-------------------------------------|
|----------------------------------------------------------------|
|----------------------------------------------------------------|


  D5             F6             G5/C                               Em7/G
  E. S +S   E  S S    S  E       E.       S      +S  E S +S  S S   S   S    S  E
|------------------------------------------------------3-(3)---1p==0----------------|
|-----------3------------3---------------------------3-------3---------3-------3----|
|----2-(2)------------0-------------------0------(0)------------------------0-------|
|-0------------0h3------------------------------------------------------------------|
|--------------------------------3--------------------------------------------------|
|-----------------------------------------------------------------------------------|
|
| ~~                     ~~~~~~~
|                                                              |--3--|
| E. S +S   E.   E      +E      +E   S   +S      +S  e S  E    S S   S E      +S  S
|------------------------------------8----------------------------------------------|
|----6-(6)\------8b10r==(8)b10==(8)-(8)r-(8)pb10r(8)-6---------8p6p==5-6b8====(6)r5-|
|-7---------------------------------------------------------------------------------|
|-----------------------------------------------------------------------------------|
|-----------------------------------------------------------------------------------|
|-----------------------------------------------------------------------------------|


  Gsus2            Em7   G5/F                 Em7/G
  E.   S +S  E   S S S E E. S +S  E S +S  S S S S S E
|-----------------------------------3-(3)---1p0-----------|
|------------3---------3----------3-------3-----3---3-----|
|------2-(2)---------0------0-(0)-----------------0-------|
|----------------0h2-----3--------------------------------|
|---------------------------------------------------------|
|-5-------------------------------------------------------|
|
|                      ~    ~     ~~~~          ~
| S  e S +E    e   S S E E. S  S  e S  S  e   S E   S S
|---------------------------------------------------------|
|----6-5-(5)----------------------------------------------|
|--------------5---5s2-2-0--2-----5-5-----5---5-5---7-7---|
|---------------------------------------------------------|
|---------------------------------------------------------|
|---------------------------------------------------------|


  D5                 F6    G5/C                        Em7/G
  E.     S +S   E  S S S E E.  S +S  E      S  +S  S S S S S E
|-------------------------------------------3--(3)---1p0-----------|
|---------------3--------3-----------3-------------3-----3---3-----|
|--------2-(2)---------0-------0-(0)-----------------------0-------|
|-0----------------0h3---------------------------------------------|
|--------------------------3---------------------------------------|
|------------------------------------------------------------------|
|
| S  S S S +S   E.   Q     E.  S  S  S S   +S   S  S S S S S S S
|------------------------------------------------------------------|
|------------------------------------------------------------------|
|-7--7-7-7-(7)\----------------------------------------------------|
|---------------------------------3--5-5b6r(5)--5--5-5-5-5-3---3b4r|
|-----------------------------/5-----------------------------5-----|
|------------------------------------------------------------------|


  Gsus2           Em7      G5/F                     Em7/G
   E.   S +S  E S S  S E   E.    S +S E   S +S  S S S S S   E
|-----------------------------------------3-(3)---1p0---------|
|-------------3--------3--------------3---------3-----3-----3-|
|-------2-(2)--------0-----------0-(0)------------------0-----|
|---------------0h2--------3----------------------------------|
|-------------------------------------------------------------|
|--5----------------------------------------------------------|
|
|     ~
| +E  E    Q      S  S S S S S S S  S S S S  S  S S S S S   E
|---------------------------------------8-------------8-8-/10-|
|-----------------------------------5h6---6p=5----5h6---------|
|------------------------------5h7--------------7-------------|
|-(3)--------------------3-5s7--------------------------------|
|-----5-------------/3-5--------------------------------------|
|-------------------------------------------------------------|


  D5                 F6             G5/C                              Em7/G
   E.  S  +S   E   S S S  E           E.      S  +S  E  S +S  S     S S   S  S  E
|-------------------------------------------------------3-(3)-------1p0-----------|
|--------------3----------3--------------------------3--------3-----------3-----3-|
|------2--(2)----------0----------------------0--(0)-------------------------0----|
|--0---------------0h3------------------------------------------------------------|
|-------------------------------------3-------------------------------------------|
|---------------------------------------------------------------------------------|
|
|  ~~~                                ~~~~~~~                       ~~~~~~~~~
|  E.  S  +E     E   E    S     +S   +E.     +S   S  E.    E     a  E    +E     E
|------------------------12b13r(12)-(12)b13-(12)p10-------------------------------|
|-10--10-(10)\--------------------------------------------------13h15---(15)------|
|------------------------------------------------------------------------------12-|
|---------------------------------------------------------------------------------|
|---------------------------------------------------------------------------------|
|---------------------------------------------------------------------------------|


      Gsus2            Em7          G5/F                                   Em7/G
       E. S  +S   E  S   S  S   E   E. S +S      E            S   +S  S  S S   S  S  E
|-------------------------------------------------------------3---(3)----1p0-----------|
|-----------------3-------------3----------------3--------------------3--------3-----3-|
|---------2--(2)------------0----------0-(0)--------------------------------------0----|
|--------------------0h==2----------3--------------------------------------------------|
|--------------------------------------------------------------------------------------|
|------5-------------------------------------------------------------------------------|
|
| a a  Q     +S   E  S  +E     +E   Q     S     +S   +S      +S   +E     E    +S  E.
|-----17----(17)-------------------------12b13r(12)-(12)b13r(12)-(12)---10---(10)------|
|---x------------15-15-(15)---(15)\-----------------------------------------------8----|
|-x------------------------------------------------------------------------------------|
|--------------------------------------------------------------------------------------|
|--------------------------------------------------------------------------------------|
|--------------------------------------------------------------------------------------|


 Chorus Breakdown
  Asus4                                     Dm9
 4/4
  Gtrs I, V
  E.         S  +S  E S +S  S E E  S   S      E. S S S E +S  S S S S  S  S S
|-0----------0--(0)-0-0-(0)-0-0-0--0--(0)-|---0--0-0-0-0-(0)-0-0-0-0--0--x-x-|
|-3----------3--(3)-3-3-(3)-3-3-3--3--(3)-|---6--6-6-6-6-(6)-6-6-6-6--6--x-x-|
|-2----------2--(2)-2-2-(2)-2-2-2--2---2--|---5--5-5-5-5-(5)-5-5-5-5-(5)-x-x-|
|-0----------0--(0)-0-0-(0)-0-0-0-(0)--0--|---0--0-0-0-0-(0)-0-0-0-0-(0)-x-x-|
|-0----------0--(0)-0-0-(0)-0-0-0-(0)--0--|----------------------------------|
|-----------------------------------------|----------------------------------|
|
| Gtr II
|                                             >
|         ~~~~~~~~~~~~~~~~~~~~~~~~~~~~~~~~~~~~~~~
| T. +X   E.    +H.                          +W
|-----------------------------------------|----------------------------------|
|-8--(8)s10----(10)-----------------------|-(10)-----------------------------|
|-----------------------------------------|----------------------------------|
|-----------------------------------------|----------------------------------|
|-----------------------------------------|----------------------------------|
|-----------------------------------------|----------------------------------|


  Em7/C                            G7sus4/Bb
  E. S +S  E S +S  S E E  S   S    E. S S S E +S  S S S S S  S   S
|-3--3-(3)-3-3-(3)-3-3-3--3--(3)-|-1--1-1-1-1-(1)-1-1-1-1-1--1--(1)-|
|-3--3-(3)-3-3-(3)-3-3-3--3--(3)-|-1--1-1-1-1-(1)-1-1-1-1-1--1--(1)-|
|-0--0-(0)-0-0-(0)-0-0-0--0---0--|-0--0-0-0-0-(0)-0-0-0-0-0--0---0--|
|-2--2-(2)-2-2-(2)-2-2-2-(2)--2--|-0--0-0-0-0-(0)-0-0-0-0-0-(0)--0--|
|-3--3-(3)-3-3-(3)-3-3-3-(3)--3--|-1--1-1-1-1-(1)-1-1-1-1-1-(1)--1--|
|--------------------------------|----------------------------------|


  Asus4                              Dm9
  E. S +S  E   S +S  S E E  S   S    E. S  S  S E +S  S S S S  S  S S
|-0--0-(0)-0---0-(0)-0-0-0--0--(0)-|-0--0--0--0-0-(0)-0-0-0-0--0--x-x-|
|-3--3-(3)-3---3-(3)-3-3-3--3--(3)-|-6--6--6--6-6-(6)-6-6-6-6--6--x-x-|
|-2--2-(2)-2---2-(2)-2-2-2--2---2--|-5--5--5--5-5-(5)-5-5-5-5-(5)-x-x-|
|-0--0-(0)-0---0-(0)-0-0-0-(0)--0--|-0--0--0--0-0-(0)-0-0-0-0-(0)-x-x-|
|-0--0-(0)-0---0-(0)-0-0-0-(0)--0--|----------------------------------|
|----------------------------------|----------------------------------|
|
| Gtr IV
| E. S +E    E   +Q.        E        E. S +E    E +Q        Q
|------------0---(0)---------------|------------3-(3)-----------------|
|----3-(3)-------------------------|----6-(6)---------------6---------|
|-2-------------------------2------|-5--------------------------------|
|----------------------------------|----------------------------------|
|----------------------------------|----------------------------------|
|----------------------------------|----------------------------------|


  Em7/C                              G7sus4/Bb
  E. S +S  E   S +S  S E E  S   S    E. S S S  E +S  S S S S S  S   S
|-3--3-(3)-3---3-(3)-3-3-3--3--(3)-|-1--1-1-1--1-(1)-1-1-1-1-1--1--(1)-|
|-3--3-(3)-3---3-(3)-3-3-3--3--(3)-|-1--1-1-1--1-(1)-1-1-1-1-1--1--(1)-|
|-0--0-(0)-0---0-(0)-0-0-0--0---0--|-0--0-0-0--0-(0)-0-0-0-0-0--0---0--|
|-2--2-(2)-2---2-(2)-2-2-2-(2)--2--|-0--0-0-0--0-(0)-0-0-0-0-0-(0)--0--|
|-3--3-(3)-3---3-(3)-3-3-3-(3)--3--|-1--1-1-1--1-(1)-1-1-1-1-1-(1)--1--|
|----------------------------------|-----------------------------------|
|
| E. S +E    E   +Q.        E        Q.        E +H
|----3-(3)-------------------------|----------^1-(1)-------------------|
|------------5---(5)---------------|----------^3-(3)-------------------|
|-5-------------------------5\-----|-3--------^3-(3)-------------------|
|----------------------------------|-----------------------------------|
|----------------------------------|-----------------------------------|
|----------------------------------|-----------------------------------|


   Chorus #4/Outro
    Asus4                              Dm9
    E. S +S  E   S +S  S E E  S   S    E. S  S  S E +S  S S S S  S  S S
||--0--0-(0)-0---0-(0)-0-0-0--0--(0)-|-0--0--0--0-0-(0)-0-0-0-0--0--x-x-|
||o-3--3-(3)-3---3-(3)-3-3-3--3--(3)-|-6--6--6--6-6-(6)-6-6-6-6--6--x-x-|
||--2--2-(2)-2---2-(2)-2-2-2--2---2--|-5--5--5--5-5-(5)-5-5-5-5-(5)-x-x-|
||--0--0-(0)-0---0-(0)-0-0-0-(0)--0--|-0--0--0--0-0-(0)-0-0-0-0-(0)-x-x-|
||o-0--0-(0)-0---0-(0)-0-0-0-(0)--0--|----------------------------------|
||-----------------------------------|----------------------------------|
|
|   E. S +E    E   +Q.        E        E. S +E    E +Q        Q
||-------------0---(0)---------------|------------3-(3)-----------------|
||o----3-(3)-------------------------|----6-(6)---------------6---------|
||--2-------------------------2------|-5--------------------------------|
||-----------------------------------|----------------------------------|
||o----------------------------------|----------------------------------|
||-----------------------------------|----------------------------------|


  Em7/C                               G7sus4/Bb
   E. S +S  E   S +S  S E E  S   S    E. S  S  S E +S  S S S S S  S   S
|--3--3-(3)-3---3-(3)-3-3-3--3--(3)-|-1--1--1--1-1-(1)-1-1-1-1-1--1--(1)--||
|--3--3-(3)-3---3-(3)-3-3-3--3--(3)-|-1--1--1--1-1-(1)-1-1-1-1-1--1--(1)-o||
|--0--0-(0)-0---0-(0)-0-0-0--0---0--|-0--0--0--0-0-(0)-0-0-0-0-0--0---0---||
|--2--2-(2)-2---2-(2)-2-2-2-(2)--2--|-0--0--0--0-0-(0)-0-0-0-0-0-(0)--0---||
|--3--3-(3)-3---3-(3)-3-3-3-(3)--3--|-1--1--1--1-1-(1)-1-1-1-1-1-(1)--1--o||
|-----------------------------------|-------------------------------------||
|
|  Q.         E   +H                  E. S +E    E +H
|-------------3---(3)---------------|----1-(1)----------------------------||
|-(1)---------3---(3)---------------|------------3-(3)-------------------o||
|-------------0---(0)---------------|-3-----------------------------------||
|-------------2---(2)---------------|-------------------------------------||
|-----------------------------------|------------------------------------o||
|-----------------------------------|-------------------------------------||


  Asus4                              Dm9
  E. S +S  E   S +S  S E E  S   S    E. S  S  S E +S  S S S S  S  S S
|-0--0-(0)-0---0-(0)-0-0-0--0--(0)-|-0--0--0--0-0-(0)-0-0-0-0--0--x-x-|
|-3--3-(3)-3---3-(3)-3-3-3--3--(3)-|-6--6--6--6-6-(6)-6-6-6-6--6--x-x-|
|-2--2-(2)-2---2-(2)-2-2-2--2---2--|-5--5--5--5-5-(5)-5-5-5-5-(5)-x-x-|
|-0--0-(0)-0---0-(0)-0-0-0-(0)--0--|-0--0--0--0-0-(0)-0-0-0-0-(0)-x-x-|
|-0--0-(0)-0---0-(0)-0-0-0-(0)--0--|----------------------------------|
|----------------------------------|----------------------------------|
|
| E. S +E    E   +Q.        E        E. S +E    E +Q        Q
|------------0---(0)---------------|------------3-(3)-----------------|
|----3-(3)-------------------------|----6-(6)---------------6---------|
|-2-------------------------2------|-5--------------------------------|
|----------------------------------|----------------------------------|
|----------------------------------|----------------------------------|
|----------------------------------|----------------------------------|
|
| Gtr II
| <                                  <
| W                                  W
|-5--------------------------------|-8--------------------------------|
|----------------------------------|----------------------------------|
|----------------------------------|----------------------------------|
|----------------------------------|----------------------------------|
|----------------------------------|----------------------------------|
|----------------------------------|----------------------------------|


  Em7/C                               G7sus4/Bb
   E. S +S  E   S +S  S E E  S   S    E. S  S  S E +S  S S  S S S  S   S
|--3--3-(3)-3---3-(3)-3-3-3--3--(3)-|-1--1--1--1-1-(1)-1-1--1-1-1--1--(1)-|
|--3--3-(3)-3---3-(3)-3-3-3--3--(3)-|-1--1--1--1-1-(1)-1-1--1-1-1--1--(1)-|
|--0--0-(0)-0---0-(0)-0-0-0--0---0--|-0--0--0--0-0-(0)-0-0--0-0-0--0---0--|
|--2--2-(2)-2---2-(2)-2-2-2-(2)--2--|-0--0--0--0-0-(0)-0-0--0-0-0-(0)--0--|
|--3--3-(3)-3---3-(3)-3-3-3-(3)--3--|-1--1--1--1-1-(1)-1-1--1-1-1-(1)--1--|
|-----------------------------------|-------------------------------------|
|
|  Q.         E   +H                  E. S +E    E +E    E    E    E
|-------------3---(3)---------------|----1-(1)----------------1-----------|
|-(1)---------3---(3)---------------|------------3-(3)-------------3------|
|-------------0---(0)---------------|-3------------------3----------------|
|-------------2---(2)---------------|-------------------------------------|
|-----------------------------------|-------------------------------------|
|-----------------------------------|-------------------------------------|
|
|  <                                  <
|  W                                  H            +E    Q.
|--3--------------------------------|-6------------(6)---5----------------|
|-----------------------------------|-------------------------------------|
|-----------------------------------|-------------------------------------|
|-----------------------------------|-------------------------------------|
|-----------------------------------|-------------------------------------|
|-----------------------------------|-------------------------------------|


  Asus4                               Dm9
   E. S +S  E   S +S  S E E  S   S    E. S  S  S E +S  S S S S  S  S S
|--0--0-(0)-0---0-(0)-0-0-0--0--(0)-|-0--0--0--0-0-(0)-0-0-0-0--0--x-x-|
|--3--3-(3)-3---3-(3)-3-3-3--3--(3)-|-6--6--6--6-6-(6)-6-6-6-6--6--x-x-|
|--2--2-(2)-2---2-(2)-2-2-2--2---2--|-5--5--5--5-5-(5)-5-5-5-5-(5)-x-x-|
|--0--0-(0)-0---0-(0)-0-0-0-(0)--0--|-0--0--0--0-0-(0)-0-0-0-0-(0)-x-x-|
|--0--0-(0)-0---0-(0)-0-0-0-(0)--0--|----------------------------------|
|-----------------------------------|----------------------------------|
|
|  E. S +E    E   +Q.        E        E. S +E    E +Q        Q
|-------------0---(0)---------------|------------3-(3)-----------------|
|-----3-(3)-------------------------|----6-(6)---------------6---------|
|--2-------------------------2------|-5--------------------------------|
|-----------------------------------|----------------------------------|
|-----------------------------------|----------------------------------|
|-----------------------------------|----------------------------------|
|
|                                     <
| +W                                  W
|-(5)-------------------------------|-8--------------------------------|
|-----------------------------------|----------------------------------|
|-----------------------------------|----------------------------------|
|-----------------------------------|----------------------------------|
|-----------------------------------|----------------------------------|
|-----------------------------------|----------------------------------|


  Em7/C                                G7sus4/Bb
   E.  S +S  E   S +S  S E E  S   S    E. S  S  S E +S  S S S S S  S   S
|--3---3-(3)-3---3-(3)-3-3-3--3--(3)-|-1--1--1--1-1-(1)-1-1-1-1-1--1--(1)-|
|--3---3-(3)-3---3-(3)-3-3-3--3--(3)-|-1--1--1--1-1-(1)-1-1-1-1-1--1--(1)-|
|--0---0-(0)-0---0-(0)-0-0-0--0---0--|-0--0--0--0-0-(0)-0-0-0-0-0--0---0--|
|--2---2-(2)-2---2-(2)-2-2-2-(2)--2--|-0--0--0--0-0-(0)-0-0-0-0-0-(0)--0--|
|--3---3-(3)-3---3-(3)-3-3-3-(3)--3--|-1--1--1--1-1-(1)-1-1-1-1-1-(1)--1--|
|------------------------------------|------------------------------------|
|
|  Q.          E   +H                  E. S +E    E +H
|--------------3---(3)---------------|------------1-(1)-------------------|
|-(1)----------3---(3)---------------|----3-(3)---------------------------|
|--------------0---(0)---------------|-3----------------------------------|
|--------------2---(2)---------------|------------------------------------|
|------------------------------------|------------------------------------|
|------------------------------------|------------------------------------|
|
|  <                                   <
|  H..                        E        W
|--3--------------------------5------|------------------------------------|
|------------------------------------|-6----------------------------------|
|------------------------------------|------------------------------------|
|------------------------------------|------------------------------------|
|------------------------------------|------------------------------------|
|------------------------------------|------------------------------------|


  Asus4                            Dm9
  E. S +S  E S +S  S E E  S   S    E. S  S  S E +S S S  S   S  S  S S
|-0--0-(0)-0-0-(0)-0-0-0--0--(0)-|-0--0--0--0-0-(0)0-0--0---0--0--x-x-|
|-3--3-(3)-3-3-(3)-3-3-3--3--(3)-|-6--6--6--6-6-(6)6-6--6---6--6--x-x-|
|-2--2-(2)-2-2-(2)-2-2-2--2---2--|-5--5--5--5-5-(5)5-5--5---5-(5)-x-x-|
|-0--0-(0)-0-0-(0)-0-0-0-(0)--0--|-0--0--0--0-0-(0)0-0--0---0-(0)-x-x-|
|-0--0-(0)-0-0-(0)-0-0-0-(0)--0--|------------------------------------|
|--------------------------------|------------------------------------|
|
| W                                E. S +E    E  S E    S   E     E
|-0------------------------------|----8-(8)------8p5--------5---------|
|-3------------------------------|------------6--------(6)--------6S==|
|-2------------------------------|-5----------------------------------|
|-0------------------------------|------------------------------------|
|--------------------------------|------------------------------------|
|--------------------------------|------------------------------------|
|
| <                                <
| W                                H.                       Q
|-5------------------------------|-8-----------------------10---------|
|--------------------------------|------------------------------------|
|--------------------------------|------------------------------------|
|--------------------------------|------------------------------------|
|--------------------------------|------------------------------------|
|--------------------------------|------------------------------------|


  Em7/C
  E.  S +S  E   S +S  S E    E  S   S
|-3---3-(3)-3---3-(3)-3-3----3--3--(3)-|
|-3---3-(3)-3---3-(3)-3-3----3--3--(3)-|
|-0---0-(0)-0---0-(0)-0-0----0--0---0--|
|-2---2-(2)-2---2-(2)-2-2----2-(2)--2--|
|-3---3-(3)-3---3-(3)-3-3----3-(3)--3--|
|--------------------------------------|
|
| E.  S +E    E    S  E    S E  E
|-----8-(8)--------8h10---10p8--8------|
|-8-----------8------------------------|
|--------------------------------------|
|--------------------------------------|
|--------------------------------------|
|--------------------------------------|
|
| <
| H..                           E
|-3-----------------------------5------|
|--------------------------------------|
|--------------------------------------|
|--------------------------------------|
|--------------------------------------|
|--------------------------------------|


  G7sus4/Bb
  E. S  S  S E   +S  S S S S S   S   S
|-1--1--1--1-1---(1)-1-1-1-1-1---1--(1)--|
|-1--1--1--1-1---(1)-1-1-1-1-1---1--(1)--|
|-0--0--0--0-0---(0)-0-0-0-0-0---0---0---|
|-0--0--0--0-0---(0)-0-0-0-0-0--(0)--0---|
|-1--1--1--1-1---(1)-1-1-1-1-1--(1)--1---|
|----------------------------------------|
|
| E. S +E.     S +E    S S S E.
|----6-(6)-----8-(8)---6p5-6p5-----------|
|-6--------------------------------------|
|----------------------------------------|
|----------------------------------------|
|----------------------------------------|
|----------------------------------------|
|
| <
| H.                       Q
|-6------------------------5-------------|
|----------------------------------------|
|----------------------------------------|
|----------------------------------------|
|----------------------------------------|
|----------------------------------------|


  Asus4
   E.  S  +S  E     S  +S   S  E  E  S   S
|--0---0--(0)-0-----0--(0)--0--0--0--0--(0)-|
|--3---3--(3)-3-----3--(3)--3--3--3--3--(3)-|
|--2---2--(2)-2-----2--(2)--2--2--2--2---2--|
|--0---0--(0)-0-----0--(0)--0--0--0-(0)--0--|
|--0---0--(0)-0-----0--(0)--0--0--0-(0)--0--|
|-------------------------------------------|
|
|  E.  S  +E     S  S  +S   S  E  Q
|-----10-(10)---10h12-(12)-12p10-10---------|
|-------------------------------------------|
|-------------------------------------------|
|--0----------------------------------------|
|-------------------------------------------|
|-------------------------------------------|
|
| +W
|-(5)---------------------------------------|
|-------------------------------------------|
|-------------------------------------------|
|-------------------------------------------|
|-------------------------------------------|
|-------------------------------------------|


  Dm9
  E.  S   S   S  E    +S   S  S  S  S  S  S S
|-0---0---0---0--0----(0)--0--0--0--0--0--x-x-|
|-6---6---6---6--6----(6)--6--6--6--6--6--x-x-|
|-5---5---5---5--5----(5)--5--5--5--5-(5)-x-x-|
|-0---0---0---0--0----(0)--0--0--0--0-(0)-x-x-|
|---------------------------------------------|
|---------------------------------------------|
|
| E.  S  +S   S  S  S  S   S  S  S  Q
|----13-(13)----13h15-----15p13----13---------|
|------------13-------13--------13------------|
|---------------------------------------------|
|-0-------------------------------------------|
|---------------------------------------------|
|---------------------------------------------|
|
| <
| H.                                Q
|-8--------------------------------10---------|
|---------------------------------------------|
|---------------------------------------------|
|---------------------------------------------|
|---------------------------------------------|
|---------------------------------------------|


  Em7/C
  E.  S +S  E    S +S   S E   E  S   S
|-3---3-(3)-3----3-(3)--3-3---3--3--(3)-|
|-3---3-(3)-3----3-(3)--3-3---3--3--(3)-|
|-0---0-(0)-0----0-(0)--0-0---0--0---0--|
|-2---2-(2)-2----2-(2)--2-2---2-(2)--2--|
|-3---3-(3)-3----3-(3)--3-3---3-(3)--3--|
|---------------------------------------|
|
| E.  S +S  S S  S  S   S S S E  E
|-----8-(8)---8h10-----10p8---8---------|
|-----------8-------8-------8----8------|
|---------------------------------------|
|-0-------------------------------------|
|---------------------------------------|
|---------------------------------------|
|
| <
| H..                            E
|-3------------------------------5------|
|---------------------------------------|
|---------------------------------------|
|---------------------------------------|
|---------------------------------------|
|---------------------------------------|


  G7sus4/Bb
  E.             S   S  S  E  +S   S  S S  S S  S   S
|-1--------------1---1--1--1--(1)--1--1-1--1-1--1--(1)-|
|-1--------------1---1--1--1--(1)--1--1-1--1-1--1--(1)-|
|-0--------------0---0--0--0--(0)--0--0-0--0-0--0---0--|
|-0--------------0---0--0--0--(0)--0--0-0--0-0-(0)--0--|
|-1--------------1---1--1--1--(1)--1--1-1--1-1-(1)--1--|
|------------------------------------------------------|
|
| X  X  S.  +S   S  +E     E  +S   E.      E    E
|------13--(13)-12-(12)--------------------------------|
|----x--------------------13-(13)----------------------|
|-x-------------------------------12-------------------|
|-----------------------------------------12-----------|
|----------------------------------------------13------|
|------------------------------------------------------|
|
| <
| W
|------------------------------------------------------|
|-6----------------------------------------------------|
|------------------------------------------------------|
|------------------------------------------------------|
|------------------------------------------------------|
|------------------------------------------------------|


  N.C.
  Gtr IV
   >
   W           +W           W
|-----------|-------------|------*|
|-----------|-------------|------*|
|-----------|-------------|------*|
|-----------|-------------|------*|
|-12--------|-(12)--------|------*|
|-----------|-------------|------*|
|
| Gtr II
|  >
|  W           +W           W
|-----------|-------------|------*|
|--3--------|--(3)--------|------*|
|-----------|-------------|------*|
|-----------|-------------|------*|
|-----------|-------------|------*|
|-----------|-------------|------*|



Duration Legend
---------------
W - whole; H - half; Q - quarter; E - 8th; S - 16th; T - 32nd; X - 64th; a - acciaccatura
+ - note tied to previous; . - note dotted; .. - note double dotted
Uncapitalized letters represent notes that are staccato (1/2 duration)
Irregular groupings are notated above the duration line
Duration letters will always appear directly above the note/fret number it represents the
duration for.  Duration letters with no fret number below them represent rests.  Multi-
bar rests are notated in the form Wxn, where n is the number of bars to rest for.  Low
melody durations appear below the staff

Tablature Legend
----------------
 h   - hammer-on
 p   - pull-off
 b   - bend
 pb  - pre-bend
 r   - bend release (if no number after the r, then release immediately)
 /\  - slide into or out of (from/to "nowhere")
 s   - legato slide
 S   - shift slide
 - natural harmonic
[n]  - artificial harmonic
n(n) - tapped harmonic
 ~   - vibrato
 tr  - trill
 T   - tap
 TP  - trem. picking
 PM  - palm muting
\n/  - tremolo bar dip; n = amount to dip
 \n  - tremolo bar down
 n/  - tremolo bar up
/n\  - tremolo bar inverted dip
 =   - hold bend; also acts as connecting device for hammers/pulls
 <> - volume swell (louder/softer)
 x   - on rhythm slash represents muted slash
 o   - on rhythm slash represents single note slash

Misc Legend
-----------
 |  - bar
||  - double bar
||o - repeat start
o|| - repeat end
*|  - double bar (ending)
 :  - bar (freetime)
 $  - Segno
 &  - Coda
Tempo markers - E/E./Q/Q./H/H. = BPM(8/16=s8/s16), where s8 = swing 8ths, s16 = swing 16ths

            
            
Suggest correction
Creating personal tab
Creating personal tab
You can edit any tab online and save it as your Personal.

You can edit, replace or remove any tab part or add personal notes – all changes will be seen only by you.

Personal tabs can be accessed anytime from any device, even offline.
Learn more »
comments
print report bad tab
2 comments total.
+3 reply
onlymodestmouse 2,350 May 06, 2009 11:28 PM

perfec

+2 reply
dragonizer50 10 Jul 27, 2011 08:13 AM

Great job!

guest
You may want to rate the tab now too:
select rating
Wanna post a correction for this tab? Suggest correction