Oops, an error
Loading. Please wait.

Trains tab

version 3
version 3

Whole song

Interactive

28,582 views 78 this week
1 commentread comment
1 2 3 4 5
x 4
add to favorites
×
Save as Personal and add changes to this tab that will be seen only by you. Learn more ›
×
You can save this tab as Personal to edit and correct it or add notes. All changes will be seen only by you. Learn more »
launch autoscroll
font size
0
reset
how to read this tab
guitar tuner
backing track
0:00
0:00
edit
Autoscroll
slow
fast
+/-
esc
set tempo
stop
Tabbed by Mattay
Comments/suggestions mateepee@hotmail.com

Capo on 5th.


[Intro/Verse 1]

e|---------------|---------------------------|-0---0-0-0----||
B|-3---3-3-3-3-3-|-3---3-3-0---3---3-3-0-3-0-|-0---0-0-3----||
G|-0---0h2-0h2-0-|-0---0-0-0---0---0h2-0h2-0-|-0---0-0-0----||
D|-0---0---0---0-|h2---2-2-2---0---0-0-0-0-0-|-2---2-2------||
A|---------------|h3---3-3-3-----------------|-2---2-2------||
E|---------------|---------------------------|-0---0-0------|| x7
  Train     set     and         match        spied under         the    blind
    Shiny       and         contoured           the         railway    winds
    And   I've       heard       the  sound   from   my   cousin's    bed

   C      A7       Am7       Em
e|--------0-0-0-|-0-0--0-0--0-0-0----------|-0-----------0--||
B|-1-1--1-2-2-2-|-2-1--1-1--1-0-0--3-3-3-3-|-3--3-3-3-3--0--||
G|-0-0--0-0-0-0-|-0-0--0-0--0-0-0--0h2-0h2-|-0--0h2-0h2--0--||
D|-2-2--2-2-2-2-|-2-2--2-2--2-2-2--0-0-0-0-|-2--0-0-0-0--2--||
A|-3-3--3-0-0-0-|-0-0--0-0--0-2-2----------|-3-----------2--||
E|-3-3--3-------|-------------0-0----------|-0-----------0--||
     The  hiss  of  the  train at the railway head

e|---------------|---------------------------|-0---0-0-0----||
B|-3---3-3-3-3-3-|-3---3-3-0---3---3-3-0-3-0-|-0---0-0-3----||
G|-0---0h2-0h2-0-|-0---0-0-0---0---0h2-0h2-0-|-0---0-0-0----||
D|-0---0---0---0-|h2---2-2-2---0---0-0-0-0-0-|-2---2-2------||
A|---------------|h3---3-3-3-----------------|-2---2-2------||
E|---------------|---------------------------|-0---0-0------||

e|--0-0-0-0---|-0-0-0-0--|-2-2-------|------||
B|--2-2-1-1---|-1-1-0-0--|-3-3--2----|-1-0--||
G|--2-2-2-2---|-0-0-0-0--|-2-2--2----|-0-0--||
D|--2-2-2-2---|-2-2-2-2--|-0-0--2----|-2-2--||
A|--0-0-0-0---|-3-3-2-2--|------0----|-3-3--||
E|------------|-3-3-3-3--|-----------|-3-3--||
    Alllllllways the summers are slipping  away

e|---------------|---------------------------|-0---0-0-0----||
B|-3---3-3-3-3-3-|-3---3-3-0---3---3-3-0-3-0-|-0---0-0-3----||
G|-0---0h2-0h2-0-|-0---0-0-0---0---0h2-0h2-0-|-0---0-0-0----||
D|-0---0---0---0-|h2---2-2-2---0---0-0-0-0-0-|-2---2-2------||
A|---------------|h3---3-3-3-----------------|-2---2-2------||
E|---------------|---------------------------|-0---0-0------||

BOTH guitars Acoustic + electric

e|---------------|---------------------------|-0---0-0-0----||
B|-3---3-3-3-3-3-|-3---3-3-0---3---3-3-0-3-0-|-0---0-0-3----||
G|-0---0h2-0h2-0-|-0---0-0-0---0---0h2-0h2-0-|-0---0-0-0----||
D|-0---0---0---0-|h2---2-2-2---0---0-0-0-0-0-|-2---2-2------||
A|---------------|h3---3-3-3-----------------|-2---2-2------|| 
E|---------------|---------------------------|-0---0-0------||(x6)
           A 60 ton angel falls to the earth
           A pile of old metal, a radiant blur

e|--0-0-0-0---|-0-0-0-0--|-2-2-------|------||
B|--2-2-1-1---|-1-1-0-0--|-3-3--2----|-1-0--||
G|--2-2-2-2---|-0-0-0-0--|-2-2--2----|-0-0--||
D|--2-2-2-2---|-2-2-2-2--|-0-0--2----|-2-2--||
A|--0-0-0-0---|-3-3-2-2--|------0----|-3-3--||
E|------------|-3-3-3-3--|-----------|-3-3--||
     Scars in the country, the summer and her


e|---------------|---------------------------|-0---0-0-0----||
B|-3---3-3-3-3-3-|-3---3-3-0---3---3-3-0-3-0-|-0---0-0-3----||
G|-0---0h2-0h2-0-|-0---0-0-0---0---0h2-0h2-0-|-0---0-0-0----||
D|-0---0---0---0-|h2---2-2-2---0---0-0-0-0-0-|-2---2-2------||
A|---------------|h3---3-3-3-----------------|-2---2-2------||
E|---------------|---------------------------|-0---0-0------||

e|--0-0-0-0---|-0-0-0-0--|-2-2-------|--------||
B|--2-2-1-1---|-1-1-0-0--|-3-3--2----|-1-0----||
G|--2-2-2-2---|-0-0-0-0--|-2-2--2----|-0-0----||
D|--2-2-2-2---|-2-2-2-2--|-0-0--2----|-2-2----||
A|--0-0-0-0---|-3-3-2-2--|------0----|-3-3----||
E|------------|-3-3-3-3--|-----------|-3-3----||
     Alllllllllways           the summers    are slipping     away
e|--0-0-0-0---|-0-0-0-0--|-2-2-------|------||
B|--2-2-1-1---|-1-1-0-0--|-3-3--2----|-1-0--||
G|--2-2-2-2---|-0-0-0-0--|-2-2--2----|-0-0--||
D|--2-2-2-2---|-2-2-2-2--|-0-0--2----|-2-2--||
A|--0-0-0-0---|-3-3-2-2--|------0----|-3-3--||
E|------------|-3-3-3-3--|-----------|-3-3--||
     Fiiiiiiiiiiiiiiiind       me a way     for making  it stay


[Solo]

e|---------------|---------------------------|-0---0-0-0----||
B|-3---3-3-3-3-3-|-3---3-3-0---3---3-3-0-3-0-|-0---0-0-3----||
G|-0---0h2-0h2-0-|-0---0-0-0---0---0h2-0h2-0-|-0---0-0-0----||
D|-0---0---0---0-|h2---2-2-2---0---0-0-0-0-0-|-2---2-2------||
A|---------------|h3---3-3-3-----------------|-2---2-2------||
E|---------------|---------------------------|-0---0-0------||(x4)

e|--0-0-0-0---|-0-0-0-0--|-2-2-------|------||
B|--2-2-1-1---|-1-1-0-0--|-3-3--2----|-1-0--||
G|--2-2-2-2---|-0-0-0-0--|-2-2--2----|-0-0--||
D|--2-2-2-2---|-2-2-2-2--|-0-0--2----|-2-2--||
A|--0-0-0-0---|-3-3-2-2--|------0----|-3-3--||
E|------------|-3-3-3-3--|-----------|-3-3--||
   When I hear the engine pass I'm kissing you wide the hissing subsides I'm in luck

e|--0-0-0-0---|-0-0-0-0--|-2-2-------|------||
B|--2-2-1-1---|-1-1-0-0--|-3-3--2----|-1-0--||
G|--2-2-2-2---|-0-0-0-0--|-2-2--2----|-0-0--||
D|--2-2-2-2---|-2-2-2-2--|-0-0--2----|-2-2--||
A|--0-0-0-0---|-3-3-2-2--|------0----|-3-3--||
E|------------|-3-3-3-3--|-----------|-3-3--||
When the evening reaches here you're tying me up I'm dying of love It's OK

e|---------------|---------------------- -----|-0---0-0-0-------||
B|-3---3-3-3-3-3-|-3---3-3-0---3---3-3-0-3-0-|-0---0-0-3--------||
G|-0---0h2-0h2-0-|-0---0-0-0---0---0h2-0h2-0-|-0---0-0-0--------||
D|-0---0---0---0-|h2---2-2-2---0---0-0-0-0-0-|-2---2-2----------||
A|---------------|h3---3-3-3-----------------|-2---2-2----------||
E|---------------|---------------------------|-0---0-0----------||(x2)
  La la la la  la   la  la     la

e|--0-0-0-0---|-0-0-0-0--|-2-2-------|------||
B|--2-2-1-1---|-1-1-0-0--|-3-3--2----|-1-0--||
G|--2-2-2-2---|-0-0-0-0--|-2-2--2----|-0-0--||
D|--2-2-2-2---|-2-2-2-2--|-0-0--2----|-2-2--||
A|--0-0-0-0---|-3-3-2-2--|------0----|-3-3--||
E|------------|-3-3-3-3--|-----------|-3-3--||
  La  la la la do do  do do na na na  nahhhhh

BANJO SOlO AND ACOUSTIC STRUMMING LISTEN OUT FOR THE RHYTHM BUT BELOW IS THE CHORD 
NOT SURE ABOUT THE FIRST CHORD (M) JUST USED THAT BECAUSE DON’T KNOW THE NAME SUGGESTIONS 
BE MUCH APPRECHIATED

   M       C       M       C       D       C       M       C       M

E|-0-0-0-0-0-0-0-0-0-0-0-0-0-0-0-0-1-1-1-1-0-0-0-0-0-0-0-0-0-0-0-0-0-0-0-0||
B|-2-2-2-2-1-1-1-1-2-2-2-2-1-1-1-1-2-2-2-2-1-1-1-1-2-2-2-2-1-1-1-1-2-2-2-2||
G|-0-0-0-0-2-2-2-2-0-0-0-0-2-2-2-2-1-1-1-1-2-2-2-2—0-0-0-0-2-2-2-2-0-0-0-0||
D|-0-0-0-0-0-0-0-0-0-0-0-0-0-0-0-0-0-0-0-0-0-0-0-0-0-0-0-0-0-0-0-0-0-0-0-0||
A|-1-1-1-1-3-3-3-3-1-1-1-1-3-3-3-3-0-0-0-0-3-3-3-3-1-1-1-1-3-3-3-3-1-1-1-1||
E|-0-0-0-0-0-0-0-0-0-0-0-0-0-0-0-0-0-0-0-0-0-0-0-0-0-0-0-0-0-0-0-0-0-0-0-0||
   C        D       C       D       C
E|-0-0-0-0-1-1-1-1-0-0-0-0-1-1-1-1-0-0-0-0-||
B|-1-1-1-1-2-2-2-2-1-1-1-1-2-2-2-2-1-1-1-1-||
G|-2-2-2-2-1-1-1-1-2-2-2-2-1-1-1-1-2-2-2-2-||
D|-0-0-0-0-0-0-0-0-0-0-0-0-0-0-0-0-0-0-0-0-||
A|-3-3-3-3-0-0-0-0-3-3-3-3-0-0-0-0-3-3-3-3-||
E|-0-0-0-0-0-0-0-0-0-0-0-0-0-0-0-0-0-0-0-0-||


e|--0-0-0-0---|-0-0-0-0--|-2-2-------|------||
B|--2-2-1-1---|-1-1-0-0--|-3-3--2----|-1-0--||
G|--2-2-2-2---|-0-0-0-0--|-2-2--2----|-0-0--||
D|--2-2-2-2---|-2-2-2-2--|-0-0--2----|-2-2--||
A|--0-0-0-0---|-3-3-2-2--|------0----|-3-3--||
E|------------|-3-3-3-3--|-----------|-3-3--||
When I hear the engine pass
I'm kissing you wide
The hissing subsides
I'm in luck

e|--0-0-0-0---|-0-0-0-0--|-2-2-------|------||
B|--2-2-1-1---|-1-1-0-0--|-3-3--2----|-1-0--||
G|--2-2-2-2---|-0-0-0-0--|-2-2--2----|-0-0--||
D|--2-2-2-2---|-2-2-2-2--|-0-0--2----|-2-2--||
A|--0-0-0-0---|-3-3-2-2--|------0----|-3-3--||
E|------------|-3-3-3-3--|-----------|-3-3--||
When the evening reaches here
You're tying me up
I'm dying of love
It's OK

e|---------------|---------------------------|-0-0-0
B|-3---3-3-3-3-3-|-3---3-3-0---3---3-3-0-3-0-|-0-0-0
G|-0---0h2-0h2-0-|-0---0-0-0---0---0h2-0h2-0-|-0-0-0
D|-0---0---0---0-|h2---2-2-2---0---0-0-0-0-0-|-2-2-2
A|---------------|h3---3-3-3-----------------|-2-2-2(x2)
E|---------------|----------  -0---0-0------||

Electric Guitar comes Back in playing same as acoustic

e|---------------|---------------------------|-0--||
B|-3---3-3-3-3-3-|-3---3-3-0---3---3-3-0-3-0-|-0--||
G|-0---0h2-0h2-0-|-0---0-0-0---0---0h2-0h2-0-|-0--||
D|-0---0---0---0-|h2---2-2-2---0---0-0-0-0-0-|-2--||
A|---------------|h3---3-3-3-----------------|-2--|| 
E|--------------------------|--0---0-0------------||(x4)
Alllllllllways the summers are slipping away
Fiiiiiiiiiiiiiiiind me a way for making it stay
Always the summers are slipping away
Find me a way for making it stay



************************************

| h  Hammer-on

************************************

            
            
Suggest correction
Creating personal tab
Creating personal tab
You can edit any tab online and save it as your Personal.

You can edit, replace or remove any tab part or add personal notes – all changes will be seen only by you.

Personal tabs can be accessed anytime from any device, even offline.
Learn more »
comments
print report bad tab
1 comment total.
0 reply
ominousomnipotent 10 Apr 09, 2016 05:22 AM

Thank you for posting this tab!

guest
Wanna post a correction for this tab? Suggest correction