Oops, an error
Loading. Please wait.

Quiero Ver, Quiero Ser, Quiero Entrar tab

44 views 3 this week
no commentswrite comment
1 2 3 4 5
3 more votes to show rating
add to favorites
×
Save as Personal and add changes to this tab that will be seen only by you. Learn more ›
×
You can save this tab as Personal to edit and correct it or add notes. All changes will be seen only by you. Learn more »
launch autoscroll
font size
0
reset
how to read this tab
guitar tuner
edit
Autoscroll
slow
fast
+/-
esc
set tempo
stop
Intro
E-----------------------12--10b12~-----------------------------/
B--------8--10b12~---8---------------8--11r10--8~------8~------/
G--7--9--------------------------------------------7h9---------/
D--------------------------------------------------------------/
A--------------------------------------------------------------/
E--------------------------------------------------------------/

E--10b12--10/--10-10r9----9b10--------------12-10--------------/
B----------------------11-----------8-10/12-------12-12p10-----/
G-------------------------------7-9------------------------12--/
D--------------------------------------------------------------/
A--------------------------------------------------------------/
E--------------------------------------------------------------/

E-----15b17-15~--------------------------10r9------10~---------/
B--12----------------8-10--12r11--8-8~--------11-8-------------/
G----------------7h9-------------------------------------------/
D--------------------------------------------------------------/
A--------------------------------------------------------------/
E--------------------------------------------------------------/

Presentame al señor Tiempo,
se fue con vos, murió en Abril.
Si se lo contaste al viento
yo no lo vi, yo no lo vi.

Si me preguntas quién ha ocupado mis días
yo no lo sé, yo no lo sé.
Si me preguntas qué ha pasado entre mis manos
yo no lo sé, no lo toqué.

Invitame a ver tu historia,
nunca diré que ya la sé.
Escondeme en tu memoria,
quiero vivir, quiero vivir.

Y describime los lugares donde has ido,
quiero viajar, quiero seguir.
Y recordame hasta dónde has llegado,
quiero saber dónde morir.


Quiero ver, quiero ser, quiero estar.
Quiero andar, penetrar, quiero entrar.

-------

Esta parte no estoy seguro si la hace la guitarra ó algún teclado
pero igual la pongo.

-------

Remontame en un barrilete...

E--------12--13-14b15~~~r14~--------------18~~~r17~------------/
B--13/15------------------------13~----------------------------/
G--------------------------------------------------------------/
D--------------------------------------------------------------/
A--------------------------------------------------------------/
E--------------------------------------------------------------/

...quiero volar, quiero volar.

Contame un cuento de hadas...

E--------12--13-14b15~~~r14~-----------------------------------/
B--13/15-------------------------------------------------------/
G--------------------------------------------------------------/
D--------------------------------------------------------------/
A--------------------------------------------------------------/
E--------------------------------------------------------------/

...quiero soñar, quiero soñar.

Y recordame si alguna vez te he mirado,
quiero llorar, quiero llorar.
Y abrime ahora las tres puertas de tu vida.

Quiero ver, quiero ser, quiero entrar.
Quiero ver, quiero ser, quiero entrar.

            
            
Suggest correction
Creating personal tab
Creating personal tab
You can edit any tab online and save it as your Personal.

You can edit, replace or remove any tab part or add personal notes – all changes will be seen only by you.

Personal tabs can be accessed anytime from any device, even offline.
Learn more »
Give kudos to tab author, rate the tab!
1 2 3 4 5
comments
print report bad tab
guest
Wanna post a correction for this tab? Suggest correction