Oops, an error
Loading. Please wait.

Shelter bass

version 1
version 1

Whole song

  • It's all the melody of Shelter arranged for bass.

Interactive

1,057 views 21 this week
no commentswrite comment
1 2 3 4 5
2 more votes to show rating
add to favorites
×
Save as Personal and add changes to this tab that will be seen only by you. Learn more ›
×
You can save this tab as Personal to edit and correct it or add notes. All changes will be seen only by you. Learn more »
launch autoscroll
font size
0
reset
guitar tuner
edit
Autoscroll
slow
fast
+/-
esc
set tempo
stop
Author
Difficulty
About this tab version
It's all the melody of Shelter arranged for bass. Was this info helpful? Yes No
Hey guys! This is the first time I made a tab so the compases are no alright, I know that, but if you hear 
and know the song it would be very easy to figure it out.
So, be free to comment about it!

SHELTER by Porter Robinson & Madeon
Crunchyroll & A-1 Pictures

TABS:

Standard Tuning

[MAIN 1]
0:00
G|-------14-12--------14-12-----------|------14-12--------------------------------------------|
D|--------------------------12--12-10-|-----------------14-14----12-14----12-14----12-14---12-|
A|---15--------15--15-----------------|--15--------15---------15-------15-------15-------15---|
E|------------------------------------|-------------------------------------------------------|

0:10
G|-------14-12----------14-12--------12-|--12--14-12---------------------------------------------|
D|-----------------14---------12--14----|-----------------14-14----12-14----12-14----12-14----12-|
A|---15--------15----15-----------------|------------15---------15-------15-------15-------15----|
E|--------------------------------------|--------------------------------------------------------|

0:20
G|-------14-12----------14-12-----------|------14-12---------------------------------------------|
D|-----------------14---------12--12-10-|-----------------14-14----12-14----12-14----12-14----12-|
A|---15--------15----15-----------------|--15--------15---------15-------15-------15-------15----|
E|--------------------------------------|--------------------------------------------------------|

0:30
G|-------14-12----------14-12--------12-|--12--14-12---------------------------------------------|
D|-----------------14---------12--14----|-----------------14-14----12-14----12-14----12-14----12-|
A|---15--------15----15-----------------|------------15---------15-------15-------15-------15----|
E|--------------------------------------|--------------------------------------------------------|

[VERSE 1]
0:39    
G|--------12------------------------------|-----------------------------|
D|-----------15-14-12----12-12----12-12---|--12-14-15-14--12------------|
A|-----15-------------15-------15---------|------------------15-15~-----|
E|----------------------------------------|-----------------------------|

0:48
G|--------12------------------------------|-----------------------------|
D|-----------15-14-12----12-12----12-14---|--12-14-15-14--12------------|
A|-----15-------------15-------15---------|------------------15-15~-----|
E|----------------------------------------|-----------------------------|

[CHORUS]
0:57
G|-----------12------------------14-12---------|-12------------------14-12---------|
D|---------------14--12--14~---14------12----12|-----14--12--14~---14------12----12|
A|--12-14-15-----------------------------------|-----------------------------------|
E|---------------------------------------------|-----------------------------------|

1:05
G|-------12-----14-12--------------------------|--------14-12~-------------------------|
D|----14---------------14-12---12-14-15-14-12--|--------------------14-12~----------14~|
A|---------------------------------------------|-15-15---------------------------------|
E|---------------------------------------------|---------------------------------------|

[MAIN 2]
1:17
G|-------14-12----------14-12-----------|------14-12---------------------------------------------|
D|-----------------14---------12--12-10-|-----------------14-14----12-14----12-14----12-14----12-|
A|---15--------15----15-----------------|--15--------15---------15-------15-------15-------15----|
E|--------------------------------------|--------------------------------------------------------|

1:27
G|-------14-12----------14-12--------12-|--12--14-12---------------------------------------------|
D|-----------------14---------12--14----|-----------------14-14----12-14----12-14----12----------|
A|---15--------15----15-----------------|------------15---------15-------15-------15-------------|
E|--------------------------------------|--------------------------------------------------------|

1:36
G|-------14-12----------14-12-----------|------14-12---------------------------------------------|
D|-----------------14---------12--12-10-|-----------------14-14----12-14----12-14----12-14----12-|
A|---15--------15----15-----------------|--15--------15---------15-------15-------15-------15----|
E|--------------------------------------|--------------------------------------------------------|

1:45
G|-------14-12----------14-12--------12-|--12--14-12---------------------------------------------|
D|-----------------14---------12--14----|-----------------14-14----12-14----12-14----12-14----12-|
A|---15--------15----15-----------------|------------15---------15-------15-------15-------15----|
E|--------------------------------------|--------------------------------------------------------|

[VERSE 2]
1:55                                                                (x2)        
G|--------12------------------------------|-----------------------------|
D|-----------15-14-12----12-12----12-12---|--12-14-15-14--12------------|
A|-----15-------------15-------15---------|------------------15-15~-----|
E|----------------------------------------|-----------------------------|

[CHORUS 2]
2:13
G|-----------12------------------14-12---------|-12------------------14-12---------|
D|---------------14--12--14~---14------12----12|-----14--12--14~---14------12----12|
A|--12-14-15-----------------------------------|-----------------------------------|
E|---------------------------------------------|-----------------------------------|

2:23
G|-------12-----14-12--------------------------|--------14-12~-------------------------|
D|-12-14---------------14-12---12-14-15-14-12--|--------------------14-12~----------14~|
A|---------------------------------------------|-15-15---------------------------------|
E|---------------------------------------------|---------------------------------------|

[BRIDGE]
2:34
G|-------14-12----------14-12-----------|------14-12---------------------------------------------|
D|----------------------------12--12-10-|-----------------14-14----12-14----12-14----12-14----12-|
A|---15--------15----15-----------------|--15--------15---------15-------15-------15-------15----|
E|--------------------------------------|--------------------------------------------------------|

2:44
G|-------14-12----------14-12--------12-|--12----14-12--------------------|
D|----------------------------12--14----|---------------------------------|
A|---15--------15----15-----------------|--------------15~~~~~~~~~~~~~~~--|
E|--------------------------------------|---------------------------------|

[MAIN 3]
2:53
G|-------14-12----------14-12-----------|------14-12---------------------------------------------|
D|-----------------14---------12--12-10-|-----------------14-14----12-14----12-14----12-14----12-|
A|---15--------15----15-----------------|--15--------15---------15-------15-------15-------15----|
E|--------------------------------------|--------------------------------------------------------|

3:02
G|-------14-12----------14-12--------12-|--12--14-12---------------------------------------------|
D|-----------------14---------12--14----|-----------------14-14----12-14----12-14----------------|
A|---15--------15----15-----------------|------------15---------15-------15----------15-14-15----|
E|--------------------------------------|--------------------------------------------------------|

[CHORUS 3]
3:12
G|---12------------------14-12---------|-12------------------14-12---------|
D|-------14--12--14~-----------12----12|-----14--12--14~---14------12----12|
A|-------------------------------------|-----------------------------------|
E|-------------------------------------|-----------------------------------|

3:21
G|-------12-----14-12------------------------|--------14~---12~------------|
D|--14---------------14-12---12-14-15-14-12--|-----------------------------|
A|-------------------------------------------|-15-15-----------------------|
E|-------------------------------------------|-----------------------------|

~ - Vibrato

            
            
Suggest correction
Creating personal tab
Creating personal tab
You can edit any tab online and save it as your Personal.

You can edit, replace or remove any tab part or add personal notes – all changes will be seen only by you.

Personal tabs can be accessed anytime from any device, even offline.
Learn more »
Give kudos to tab author, rate the tab!
1 2 3 4 5
comments
print report bad tab
guest
You may want to rate the tab now too:
select rating
Wanna post a correction for this tab? Suggest correction