Oops, an error
Loading. Please wait.

Small bass

603 views 3 this week
no commentswrite comment
1 2 3 4 5
3 more votes to show rating
add to favorites
×
Save as Personal and add changes to this tab that will be seen only by you. Learn more ›
×
You can save this tab as Personal to edit and correct it or add notes. All changes will be seen only by you. Learn more »
launch autoscroll
font size
0
reset
guitar tuner
edit
Autoscroll
slow
fast
+/-
esc
set tempo
stop
Author
Difficulty
---------------------------------------------------------------------------
                          SMALL - Portshed
---------------------------------------------------------------------------

Basstab by Gustavo02
emaildogustavo02@hotmail.com


I always liked portished, so when i saw the request I decided to do it. 
Actually the bass only comes in 2:40 on part 3. But in case you want to play the others
parts on bass, i wrote it:


INTRO:

G|------------------------| |------------------------|  
D|--------2---------------| |------------------------| 
A|----2-------3-----------| |------------------------|
E|0-----------------------| |------------------------|


PART 1:
( 0:11 the voice enters)

G|--------0-----------0---|  
D|----2-----------2-------| 
A|2-----------3-----------|  19x
E|------------------------| 

OR you can do one octave above, i think it fits more:

G|--------12----------12--|  
D|----14----------14------| 
A|14----------15----------| 19x
E|------------------------| 


PART 2:
still there is no bass here either, but the notes are:
01:12

G|------------------------| |------------------------|  
D|------------------------| |------------------------| 
A|------------------------| |------------------------|
E|0-----------------------| |0-----------------------|

G|------------------------| |------------------------|  
D|------------------------| |------------------------| 
A|------------------------| |------------------------|
E|0-----------------------| |3-----------------------|

G|------------------------| |------------------------|  
D|------------------------| |------------------------| 
A|------------------------| |------------------------|
E|3-----------------------| |3-----------------------|

just keep altenating between these 2 notes, following the voice 
(there is no other thing to follow anyways...)


PART 3:
02:31  (some keyboard comes in, alone, the bass will enters at 02:41 only)

                                               drums here
G|------------------------| |--------------------99--|  
D|------------------------| |------------------------| 
A|------------------------| |------------------------|
E|------------------------| |------------------------|

G|------------------------| |------------------------|  
D|------------------------| |------------------------| 
A|7---7---5---7---7---7---| |7---7---7---5---5---8---|
E|------------------------| |------------------------|

G|------------------------| |------------------------|  
D|------------------------| |------------------------| 
A|7---7---7---7---7---7---| |7---7---7---5---5---8---|
E|------------------------| |------------------------|

G|------------------------| |------------------------|  
D|------------------------| |------------------------| 
A|7---7---5---7---7---7---| |7---7---7---5---5---8---|
E|------------------------| |------------------------|

G|------------------------| |------------------------|  
D|------------------------| |------------------------| 
A|7---7---7---7---7---7---| |7---7---7---5---5---8---|
E|------------------------| |------------------------|

keep doing this until 03:56, then there is some variations on bass:


G|--------97----------97--| |--------97--------------|  
D|----------97----------97| |----------97------------| 
A|7---7-------7---7-------| |7---7-------5---5--58---| <-4x
E|------------------------| |------------------------|

-----------
PART 2 again
-----------


PART 4:
(at 05:48)

G|------------------------| |--------------------|  
D|------------------------| |--------------------| 
A|7-7-7-7-7---7-7-7-7-7---| |7-7-7-7-7---5---5---| <-4x
E|------------------------| |--------------------|

G|------------------------| |--------------------|  
D|------------------------| |--------------------| 
A|7-7-7-7-7---7-7-7-7-7---| |7-7-7-7-7---5---5---| 
E|------------------------| |--------------------|

G|------------------------|
D|------------------------|   
A|5---5---5---5---5---5---| <-7x
E|------------------------| 

G|------------------------|  
D|------------------------| 
A|5-----------------------| 
E|------------------------| 

(break)

at 06:30 it comes back:

--------| G|------------------------| |--------------------|  
--------| D|------------------------| |--------------------| 
5---5---| A|7-7-7-7-7---7-7-7-7-7---| |7-7-7-7-7---5---5---| 
--------| E|------------------------| |--------------------|

this reapeats until the end.

good luck

            
            
Suggest correction
Creating personal tab
Creating personal tab
You can edit any tab online and save it as your Personal.

You can edit, replace or remove any tab part or add personal notes – all changes will be seen only by you.

Personal tabs can be accessed anytime from any device, even offline.
Learn more »
Give kudos to tab author, rate the tab!
1 2 3 4 5
comments
print report bad tab
guest
You may want to rate the tab now too:
select rating
Wanna post a correction for this tab? Suggest correction