Oops, an error
Loading. Please wait.

Colors chords

version 1
version 1

Whole song

18,163 views 3 this week
1 commentread comment
1 2 3 4 5
1 last vote to show rating
add to favorites
×
Save as Personal and add changes to this tab that will be seen only by you. Learn more ›
×
You can save this tab as Personal to edit and correct it or add notes. All changes will be seen only by you. Learn more »
launch autoscroll
font size
0
reset
transpose
0
reset
display chords
guitar tuner
edit
Autoscroll
slow
fast
+/-
esc
set tempo
stop
Author
Strumming
There is no strumming pattern for this song yet. and get +5 IQ
-------------------------------------------------------------------------------
                             COLORS - Portugal. the Man
-------------------------------------------------------------------------------
   G  Emin Bmin  C  Amin  
e|-3---0---2-----0--0-------|
B|-0---0---3-----1--1-------|
G|-0---0---4-----0--2-------|
D|-0---2---4-----2--2-------|
A|-2---2---2-----3--0-------|
E|-3---0---------3----------|

  G         Bmin      Emin
  All the needy still need
  C        Amin       Emin
  All the losers still lose
  G         Bmin           Emin
  All the peachers still preach
  C        Amin       Emin 
  They ain't bringin' no change

 (same for other verses and chorus)


BRIDGE
  
   Emin       G      Bmin
   Bits and Bits of care
   C             G
   Bit by Bit away
   Emin       G     Bmin
   Grow as people grow
   C               G
   Glow as people glow
       
     Amin chord for a while then back to chorus

      
                        

            
            
Suggest correction
Creating personal tab
Creating personal tab
You can edit any tab online and save it as your Personal.

You can edit, replace or remove any tab part or add personal notes – all changes will be seen only by you.

Personal tabs can be accessed anytime from any device, even offline.
Learn more »
Give kudos to tab author, rate the tab!
1 2 3 4 5
comments
print report bad tab
1 comment total.
0 reply
guitarmanzac 472 Sep 23, 2008 07:29 PM

after watching live videos i think he plays the chords like the following:


G Emin Bmin C Amin
e|-3---12---7-----8---5-------|
B|-3---12---7-----8---5-------|
G|-4---12---7-----9---5-------|
D|-5---14---9-----10--7-------|
A|----------------------------|
E|-3---12---7-----8---5-------|

guest
You may want to rate the tab now too:
select rating
Wanna post a correction for this tab? Suggest correction