Oops, an error
Loading. Please wait.

Do You chords

version 2
version 2

Whole song

1,657 views 3 this week
no commentswrite comment
1 2 3 4 5
3 more votes to show rating
add to favorites
×
Save as Personal and add changes to this tab that will be seen only by you. Learn more ›
×
You can save this tab as Personal to edit and correct it or add notes. All changes will be seen only by you. Learn more »
launch autoscroll
font size
0
reset
transpose
0
reset
display chords
guitar tuner
edit
Autoscroll
slow
fast
+/-
esc
set tempo
stop
Author
Difficulty
Strumming
There is no strumming pattern for this song yet. and get +5 IQ
Portugal. The Man - Do You
The Satanic Satanist (2009)

Always use the chords as structured in the tab to sound better.
Any errors or improvements feel free to comment.

Verse 1:

   E                                            C#m
   Do you, do you understand the people that we are?
e|-7----------------------------------------------4------|
B|-9----------------------------------------------5------|
G|-9----------------------------------------------6------|
D|-9-----------------------------/6--4---2---4----6------|
A|-7--------------------------------------------4-4------|
E|-x----------------------------------------------x------|

                                        E
   And do you believe right from  the   start?
e|---------------------------------------7---------------|
B|---------------------------------------9---------------|
G|---------------------------------------9---------------|
D|-------------------/11----9-11p9-------9---------------|
A|--------------------------------11p9-7-7---------------|
E|---------------------------------------x---------------|

                             C#m
   Do you see that everybody needs?
e|----------------------------4--------------------------|
B|----------------------------5--------------------------|
G|----------------------------6--------------------------|
D|----------------/6-4--2-4---6--------------------------|
A|--------------------------4-4--------------------------|
E|----------------------------x--------------------------|

                                           F#
   Do you feel when you're burning in that hell?
e|-----------------------------------------2-------------|
B|-----------------------------------------2-------------|
G|-----------------------------------------3-------------|
D|-----------------------/11--9--11p9------4-------------|
A|------------------------------------9----4-------------|
E|-----------------------------------------2-------------|

   Yeah, we'll make it here


   (C#m) 
e|-------------------------------------------------------|
B|-------------------------------------------------------|
G|-------------------------------------------------------|
D|--/11--9--11-11--9----9-11--9---9--11--9---------------|
A|-------------------11---------11--------11-------------|
E|-------------------------------------------------------|

e|-------------------------------------------------------|
B|-------------------------------------------------------|
G|-------------------------------------------------------|
D|--/11--9--11-11--9----9-11--9--------------------------|
A|-------------------11---------11-11/-------------------|
E|-------------------------------------------------------|


Chorus:

   E          C#m        G#            E
      Did you find your fear? (Did you find?)
e|-0----------4----------4-------------------------------|
B|-0----------5----------4-------------------------------|
G|-1----------6----------5-------------------------------|
D|-2----------6----------6-------------------------------|
A|-2----------4----------6-------------------------------|
E|-0----------x----------4-------------------------------|

           C#m        G#            E
   Did you find your fear?
           C#m        G#            E
   Did you find your fear? (Did you find?)
           C#m        G#
   Did you find your fear?

Verse 2:

   E                                       C#m
   Do you, do you fear the marching of the lamb?
e|-7-----------------------------------------4-----------|
B|-9-----------------------------------------5-----------|
G|-9-----------------------------------------6-----------|
D|-9-----------------------/6--4----2--4-----6-----------|
A|-7---------------------------------------4-4-----------|
E|-x-----------------------------------------x-----------|
                                         E
   Do you believe there's loyalty  in  man?
e|---------------------------------------7---------------|
B|---------------------------------------9---------------|
G|---------------------------------------9---------------|
D|----------------------/11--9-11p9------9---------------|
A|--------------------------------11p9-7-7---------------|
E|---------------------------------------x---------------|

                                  C#m
   Do you see when  others turn  away?
e|-----------------------------------4-------------------|
B|-----------------------------------5-------------------|
G|-----------------------------------6-------------------|
D|----------------/6--4----2-----4---6-------------------|
A|---------------------------------4-4-------------------|
E|-----------------------------------x-------------------|
                                   F#
   Do you hear it swimming in that head?
e|---------------------------------2---------------------|
B|---------------------------------2---------------------|
G|---------------------------------3---------------------|
D|---------------/11--9--11p9------4---------------------|
A|----------------------------9----4---------------------|
E|---------------------------------2---------------------|

   Yeah, we'll make it here

Chorus:

   E          C#m        G#            E
      Did you find your fear? (Did you find?)
e|-0----------4----------4-------------------------------|
B|-0----------5----------4-------------------------------|
G|-1----------6----------5-------------------------------|
D|-2----------6----------6-------------------------------|
A|-2----------4----------6-------------------------------|
E|-0----------x----------4-------------------------------|

           C#m        G#            E
   Did you find your fear?
           C#m        G#            E
   Did you find your fear? (Did you find?)
           C#m        G#            A
   Did you find your fear?


Bridge:

C#m                        G#
   He came down the from moon
                             E
   And rained down on all of us
                      F#
   Rained down all of us
                    C#m
   And everyone was saved
                    G#
   He fell into the sea
                 E
   Just to swim around
                    F#                C#m
   Just to feel the clouds on the way down
                    G#
   And everyone was saved
                 A
   Averyone was saved
                E
   Everyone was saved 

Chorus:

           C#m        G#            E
   Did you find your fear? (Did you find?)
           C#m        G#            E
   Did you find your fear?
           C#m        G#            E
   Did you find your fear? (Did you find?)
           C#m        G#
   Did you find your fear?

Outro chords:

   A     C     D     F       A
e|-0-----0-----2-----x-------x-----------------------|
B|-2-----1-----3-----1-------5-----------------------|
G|-2-----0-----2-----2-------6-----------------------|
D|-2-----2-----0-----3-------7-----------------------|
A|-0-----3-----x-----x-------x-----------------------|
E|-x-----x-----x-----x-------x-----------------------|

            
            
Suggest correction
Creating personal tab
Creating personal tab
You can edit any tab online and save it as your Personal.

You can edit, replace or remove any tab part or add personal notes – all changes will be seen only by you.

Personal tabs can be accessed anytime from any device, even offline.
Learn more »
Give kudos to tab author, rate the tab!
1 2 3 4 5
comments
print report bad tab
guest
You may want to rate the tab now too:
select rating
Wanna post a correction for this tab? Suggest correction