Oops, an error
Loading. Please wait.

Elephants bass

2,117 views 1 this week
1 commentread comment
1 2 3 4 5
2 more votes to show rating
add to favorites
×
Save as Personal and add changes to this tab that will be seen only by you. Learn more ›
×
You can save this tab as Personal to edit and correct it or add notes. All changes will be seen only by you. Learn more »
launch autoscroll
font size
0
reset
guitar tuner
edit
Autoscroll
slow
fast
+/-
esc
set tempo
stop
Author
Difficulty
I'd say most of this right.
The bassist plays with a little distortion,
so it may sound a little off, but mess with the high, lows, and mids a little bit
to get the right sound.

Verse (1:10)
G|----------------------------------------------35-|
D|--------------------------------------------35---|
A|----------53-------------3-3333------3-3333------|
E|-3-3333-3---5-3-3333-357--------/975-------------|

G|-----------------|
D|-----------------|
A|-----------------|
E|-3-3333-----5-5~-|

G|-----------------------------------------------35-|
D|---------------------------------------------35---|
A|----------53-------------3-3333-/7----3-3333------|
E|-3-3333-3---5-3-3333-357----------975-------------|

G|---------|
D|---------|
A|---------|
E|-3-3333~-|

(1:41)
G|---------------------------------|
D|---------------------------------|
A|-3-3-3-3-3-3-3-3-3-3-3-3-3-3-5-3-|
E|---------------------------------|

G|------------------------------------------------------------------|
D|------------------------------------------------------------------|
A|----------333333333-555555555-------------------------------------|
E|-33333333---------------------333333333-|x2 At the end play E|-3--| 
on the last bar of the 2nd time

Verse (2:06)
G|----------------------------------------------35-|
D|--------------------------------------------35---|
A|----------53-------------3-3333------3-3333------|
E|-3-3333-3---5-3-3333-357--------/975-------------|

G|-----------------|
D|-----------------|
A|-----------------|
E|-3-3333-----5-5~-|

G|----------------------------------------------35-|
D|--------------------------------------------35---|
A|----------53-------------3-3333------3-3333------|
E|-3-3333-3---5-3-3333-357--------/975-------------|

G|---------|
D|---------|
A|---------|
E|-3-3333~-|

(2:38)
G|---------------------------------|
D|---------------------------------|
A|-3-3-3-3-3-3-3-3-3-3-3-3-3-3-5-3-|
E|---------------------------------|

G|------------------------------------------------------------------|
D|------------------------------------------------------------------|
A|----------333333333-555555555-------------------------------------|
E|-33333333---------------------333333333-|x2 At the end play E|-3--| 
on the last bar of the 2nd time

Breakdown
(3:07) This part can barely be heard, but this is the main gist of it, and it sounds pretty right.
G|-----------------------------------------------------------------------|
D|-----------------------------------------------------------------------|
A|-----------------------------------------------------------------------|
E|-3-33-333-03-33-30-50-3-33-333-03-33-30-50-/3-5~-/7-9-8h10p8-7p5h7-6p0-|

G|----------------------------------15-----------15------|
D|------------------10-101010---1517--1517---1517---1517-|
A|-------/10-101010-----------17-----------17------------|
E|-3-333-------------------------------------------------|

G|----------------------------------15-----|
D|------------------10-101010---1517--1517-|
A|-------/10-101010-----------17-----------|
E|-3-333-----------------------------------|x3

End On:
G|----|
D|----|
A|----|
E|-3~-|

            
            
Suggest correction
Creating personal tab
Creating personal tab
You can edit any tab online and save it as your Personal.

You can edit, replace or remove any tab part or add personal notes – all changes will be seen only by you.

Personal tabs can be accessed anytime from any device, even offline.
Learn more »
Give kudos to tab author, rate the tab!
1 2 3 4 5
comments
print report bad tab
1 comment total.
0 reply
ordino 10 Dec 18, 2009 10:07 AM

i think my bass is probably out a bit so ill give u the benefit of the doubt, 5 stars

guest
You may want to rate the tab now too:
select rating
Wanna post a correction for this tab? Suggest correction