Oops, an error
Loading. Please wait.

Open Wide bass

633 views 1 this week
1 commentread comment
1 2 3 4 5
3 more votes to show rating
add to favorites
×
Save as Personal and add changes to this tab that will be seen only by you. Learn more ›
×
You can save this tab as Personal to edit and correct it or add notes. All changes will be seen only by you. Learn more »
launch autoscroll
font size
0
reset
guitar tuner
edit
Autoscroll
slow
fast
+/-
esc
set tempo
stop
Intro/Verse 1

G| -------------------------------------------------|
D|--------------------------------------------------|
A|----------5~-7--0h3-0h3--3-5-2~-0223h5------------|
E|-5-5--5-7-----------------------------------------|
repeat until end of verse (listen for small changes each time this line is played)


Prechorus

G|---------------------------------|
D|---------------------------------|
A|-----5-7---5---------------------|
E|-5-7-----7----0------------------|


Chorus

G|---------------------------------|
D|---------------------------------|
A|---------------------------------|
E|-5--10--8--7---------------------|

G|---------------------------------|
D|---------------------------------|
A|-------3-------------------------|
E|-5-3-5---0h3---------------------|

G|---------------------------------|
D|---------------------------------|
A|---------------------------------|
E|-5--10--8--7---------------------|


Verse 2

G| -------------------------------------------------|
D|--------------------------------------------------|
A|----------5~-7--0h3-0h3--3-5-2~-0223h5------------|
E|-5-5--5-7-----------------------------------------|
repeat this, but on the last one play this:

G| -------------------------------------------------|
D|--------------------------------------------------|
A|----------55555577333333552222223~----------------|
E|-5-5--5-7-----------------------------------------|


Outro

G| -------------------------------------------------|
D|--------------------------------------------------|
A|------------------0h3-----------------------------|
E|-5-3-5-0h3--5-3-5---------------------------------|

G|---------------------------------|
D|---------------------------------|
A|-----5-7---5---------------------|
E|-5-7-----7----0------------------|

G|---------------------------------|
D|---------------------------------|
A|---------------------------------|
E|-5~------------------------------|

G|---------------------------------|
D|---------------------------------|
A|---------------------------------|
E|-5--10--8--7---------------------|

That's basically it. Just figure out how many times to repeat each part by listening to the song.

            
            
Suggest correction
Creating personal tab
Creating personal tab
You can edit any tab online and save it as your Personal.

You can edit, replace or remove any tab part or add personal notes – all changes will be seen only by you.

Personal tabs can be accessed anytime from any device, even offline.
Learn more »
Give kudos to tab author, rate the tab!
1 2 3 4 5
comments
print report bad tab
1 comment total.
0 reply
sebbsmith 97 Jul 01, 2007 10:23 AM

Is this actually a Portugal. The man song? I downloaded it and it doesn't sound like them 100%.

guest
Wanna post a correction for this tab? Suggest correction