Oops, an error
Loading. Please wait.

The Sun chords

version 2
version 2

Whole song

9,961 views 18 this week
3 commentsread comments
1 2 3 4 5
x 21
add to favorites
×
Save as Personal and add changes to this tab that will be seen only by you. Learn more ›
×
You can save this tab as Personal to edit and correct it or add notes. All changes will be seen only by you. Learn more »
launch autoscroll
font size
0
reset
transpose
0
reset
display chords
guitar tuner
edit
Autoscroll
slow
fast
+/-
esc
set tempo
stop
Author
Difficulty
Strumming
There is no strumming pattern for this song yet. and get +5 IQ
Portugal. The Man - The Sun (chords)
I'm pretty sure that's how he plays it, but you can play the chords normally.
Any errors or corrections feel free to comment.

           F                  Dm
    If you look real high you just might find 
e|---------x------------------1----------------------|
B|---------1------------------3----------------------|
G|---------2------------------2----------------------|
D|---------3------------------0----------------------|
A|---------x------------------x----------------------|
E|---------x------------------x----------------------|

    Am
    Sitting in the stars glistening, glistening 
e|--0------------------------------------------------|
B|--1------------------------------------------------|
G|--2------------------------------------------------|
D|--2------------------------------------------------|
A|--0------------------------------------------------|
E|--x------------------------------------------------|

    F                      Dm
   Waiting for the band to come 
        Am
   Just waiting for that man to come 
   Dm
   Oh, I wonder...


    F        A             Dm         C  A#
    Slip on down from that sun to climb
e|--x-------x--------------x----------x--x--------------|
B|--1-------5--------------x----------8--6--------------|
G|--2-------6--------------10---------9--7--------------|
D|--3-------7--------------12---------10-8--------------|
A|--x-------x--------------x----------x--x--------------|
E|--x-------x--------------x----------x--x--------------|

    F                A                   Dm   C  A#
   Down to earth and down to things like time 
    F                  Dm              Am
   Because we are all, we are all just lovers 
e|--x------------------1---------------0----------------|
B|--1------------------3---------------1----------------|
G|--2------------------2---------------2----------------|
D|--3------------------0---------------2----------------|
A|--x------------------x---------------0----------------|
E|--x------------------x---------------x----------------|
   F                 Dm                   Am
   Born of earth and light like all these others 

             F                           
   If you're talking to the moon 
       Dm
   The moon might sing about 
   Am                                         
   The universe shouting out I don't need, I don't need 
   F    Dm   Am
   Time... I breathe in time 
   F      Dm           Am
   Where, where are we now?
   F      Dm           Am
   Where, where are we now?

   F        A             Dm         C  A#
   Slip on down from that sun to climb
   F                  A                   Dm   C  A#
   Down to earth and down to things like time 
   F                   Dm              Am
   Because we are all, we are all just lovers 
   F                 Dm                   Am
   Born of earth and light like all these others 

             F                          Dm
   If you're looking for the river just find the mouth 
        Am
   It's grinding like gnashing teeth foaming out, foaming out 
   F                      Dm
   Mixing up that hell to come
        Am
   Just mixing up the hell to come

            F                       Dm
   And it's mixing up to swallow me whole 
    Am
   Fixing up to swallow me whole 
    F                      Dm
   Fixing up to swallow my soul 
    Am
   Fixing up to swallow me whole 

   Dm Am Dm Am Dm Am Dm

   F        A             Dm         C  A#
   Slip on down from that sun to climb
   F                  A                   Dm   C  A#
   Down to earth and down to things like time 
   F                   Dm              Am
   Because we are all, we are all just lovers 
   F                 Dm                   Am
   Born of earth and light like all these others

   F      Dm           Am
   Where, Where are we now?
   F      Dm           Am
   Where, Where are we now?
   F      Dm           Am
   Where, Where are we now?
   F      Dm           Am
   Where, Where are we now?

    F  Bb  F
e|--x--x---x------------------------------------------|
B|--1--6---1------------------------------------------|
G|--2--7---2------------------------------------------|
D|--3--8---3------------------------------------------|
A|--x--x---x------------------------------------------|
E|--x--x---x------------------------------------------|

            
            
Suggest correction
Creating personal tab
Creating personal tab
You can edit any tab online and save it as your Personal.

You can edit, replace or remove any tab part or add personal notes – all changes will be seen only by you.

Personal tabs can be accessed anytime from any device, even offline.
Learn more »
comments
print report bad tab
3 comments total.
0 reply
xalemander 424 Apr 07, 2014 12:58 PM

thanks for your great tab of a great song!

0 reply
shocke7 105 Apr 08, 2014 08:28 AM

You're welcome, my friend :)

0 reply
westcoasting 10 Jan 27, 2017 01:23 AM

thanks for your great comment about a great tab of a great song

guest
You may want to rate the tab now too:
select rating
Wanna post a correction for this tab? Suggest correction