Oops, an error
Loading. Please wait.

Music For Shoplifting tab

by Pos
1,397 views 1 this week
2 commentsread comments
1 2 3 4 5
1 last vote to show rating
add to favorites
×
Save as Personal and add changes to this tab that will be seen only by you. Learn more ›
×
You can save this tab as Personal to edit and correct it or add notes. All changes will be seen only by you. Learn more »
launch autoscroll
font size
0
reset
how to read this tab
guitar tuner
edit
Autoscroll
slow
fast
+/-
esc
set tempo
stop
Standard Tuning
Capo 2nd fret

|-------------------------------------------------------------------------|
|---2---2-----------2-----2----------2----2-----------2---2---------------|
|--1---1---1-------1----1---1--1----1----1---1---1---1---1----------------|
|-------------0--------------------------------0---2----0--------0--------|
|0----3---2------0----------------0-----3---2---------------3-2-3---------|
|----------------------3---2--3-------------------------------------------|

Same riff repeats through out the whole song, I find its easiest to hold the G and B 
notes with my first and third finger, and use my 2nd and 4th finger to hit the bass line

            
            
Suggest correction
Creating personal tab
Creating personal tab
You can edit any tab online and save it as your Personal.

You can edit, replace or remove any tab part or add personal notes – all changes will be seen only by you.

Personal tabs can be accessed anytime from any device, even offline.
Learn more »
Give kudos to tab author, rate the tab!
1 2 3 4 5
comments
print report bad tab
2 comments total.
0 reply
miguelp80 10 Oct 24, 2008 10:48 PM

It's like perfect!
Thanks!
=D

0 reply
SuicidalHobo 10 Mar 06, 2011 12:13 PM

G string should all be second fret and B string first fret, eg
|--------------
|---1---1------
|--2---2---2---
|-------------0
|0----3---2----
|--------------

guest
Wanna post a correction for this tab? Suggest correction