Oops, an error
Loading. Please wait.

Yeah Man tab

version 1
version 1

Whole song

Interactive

979 views 1 this week
no commentswrite comment
1 2 3 4 5
3 more votes to show rating
add to favorites
×
Save as Personal and add changes to this tab that will be seen only by you. Learn more ›
×
You can save this tab as Personal to edit and correct it or add notes. All changes will be seen only by you. Learn more »
launch autoscroll
font size
0
reset
how to read this tab
guitar tuner
edit
Autoscroll
slow
fast
+/-
esc
set tempo
stop
Author
Tabbers playing skills
advanced
-------------------------------------------------------------------------------
                                               Yeah Man - Postmortem Promises
-------------------------------------------------------------------------------
Tabbed by: Alain Cloutier 
Email: six_inch_inch_of_bl0od@hotmail.com

Tuning: A,E,A,D,F#,b

Guitar


      PM PM                          
      E  E  S S S S S S S S S S S S  
B ||--------------------------------|
F#||--------------------------------|
D ||--------------------------------|
A ||------------------------8-8-8-8-|
E ||--0--0--8-8-8-8-7-7-7-7---------|
A ||--0--0--------------------------|


                                         PM PM                          
  S S S S  S  S  S  S S S S S S S S S    E  E  S S S S S S S S S S S S  
--------------------------------------|--------------------------------|
--------------------------------------|--------------------------------|
--------------------------------------|--------------------------------|
--7-7-7-7-----------------------------|------------------------8-8-8-8-|
----------10-10-10-10-8-8-8-8-7-7-7-7-|--0--0--8-8-8-8-7-7-7-7---------|
--------------------------------------|--0--0--------------------------|


                                         PM PM                          
  S S S S S S S S  S  S  S  S S S S S    E  E  S S S S S S S S S S S S  
--------------------------------------|--------------------------------|
--------------------------------------|--------------------------------|
--------------------------------------|--------------------------------|
--7-7-7-7-8-8-8-8-10-10-10-10-8-8-8-8-|------------------------8-8-8-8-|
--------------------------------------|--0--0--8-8-8-8-7-7-7-7---------|
--------------------------------------|--0--0--------------------------|


                                         PM PM    PM    PM    PM  
  S S S S  S  S  S  S S S S S S S S S    E  E  E  E  E  E  E  E   
--------------------------------------|--------------------------|
--------------------------------------|--------------------------|
--------------------------------------|--------------------------|
--7-7-7-7-----------------------------|--------------------------|
----------10-10-10-10-8-8-8-8-7-7-7-7-|--------8-----8-----8-----|
--------------------------------------|--0--0-----0-----0-----0--|


  PM PM    PM    PM         PM PM                          
  E  E  E  E  E  E  Q       E  E  S S S S S S S S S S S S  
-------------------------|--------------------------------|
-------------------------|--------------------------------|
-------------------------|--------------------------------|
-------------------------|------------------------8-8-8-8-|
--------7-----7-----7----|--0--0--8-8-8-8-7-7-7-7---------|
--0--0-----0-----0-------|--0--0--------------------------|


                                         PM PM                          
  S S S S  S  S  S  S S S S S S S S S    E  E  S S S S S S S S S S S S  
--------------------------------------|--------------------------------|
--------------------------------------|--------------------------------|
--------------------------------------|--------------------------------|
--7-7-7-7-----------------------------|------------------------8-8-8-8-|
----------10-10-10-10-8-8-8-8-7-7-7-7-|--0--0--8-8-8-8-7-7-7-7---------|
--------------------------------------|--0--0--------------------------|


                                         PM PM                          
  S S S S S S S S  S  S  S  S S S S S    E  E  S S S S S S S S S S S S  
--------------------------------------|--------------------------------|
--------------------------------------|--------------------------------|
--------------------------------------|--------------------------------|
--7-7-7-7-8-8-8-8-10-10-10-10-8-8-8-8-|------------------------8-8-8-8-|
--------------------------------------|--0--0--8-8-8-8-7-7-7-7---------|
--------------------------------------|--0--0--------------------------|


                                         PM PM    PM    PM    PM  
  S S S S  S  S  S  S S S S S S S S S    E  E  E  E  E  E  E  E   
--------------------------------------|--------------------------|
--------------------------------------|--------------------------|
--------------------------------------|--------------------------|
--7-7-7-7-----------------------------|--------------------------|
----------10-10-10-10-8-8-8-8-7-7-7-7-|--------8-----8-----8-----|
--------------------------------------|--0--0-----0-----0-----0--|


  PM PM    PM    PM         PM PM                          
  E  E  E  E  E  E  Q       E  E  S S S S S S S S S S S S  
-------------------------|--------------------------------|
-------------------------|--------------------------------|
-------------------------|--------------------------------|
-------------------------|------------------------8-8-8-8-|
--------7-----7-----7----|--0--0--8-8-8-8-7-7-7-7---------|
--0--0-----0-----0-------|--0--0--------------------------|


                                         PM PM                          
  S S S S  S  S  S  S S S S S S S S S    E  E  S S S S S S S S S S S S  
--------------------------------------|--------------------------------|
--------------------------------------|--------------------------------|
--------------------------------------|--------------------------------|
--7-7-7-7-----------------------------|------------------------8-8-8-8-|
----------10-10-10-10-8-8-8-8-7-7-7-7-|--0--0--8-8-8-8-7-7-7-7---------|
--------------------------------------|--0--0--------------------------|


                                         PM PM                          
  S S S S S S S S  S  S  S  S S S S S    E  E  S S S S S S S S S S S S  
--------------------------------------|--------------------------------|
--------------------------------------|--------------------------------|
--------------------------------------|--------------------------------|
--7-7-7-7-8-8-8-8-10-10-10-10-8-8-8-8-|------------------------8-8-8-8-|
--------------------------------------|--0--0--8-8-8-8-7-7-7-7---------|
--------------------------------------|--0--0--------------------------|


                                         PM PM    PM    PM    PM  
  S S S S  S  S  S  S S S S S S S S S    E  E  E  E  E  E  E  E   
--------------------------------------|--------------------------|
--------------------------------------|--------------------------|
--------------------------------------|--------------------------|
--7-7-7-7-----------------------------|--------7-----7-----7-----|
----------10-10-10-10-8-8-8-8-7-7-7-7-|--------------------------|
--------------------------------------|--0--0-----0-----0-----0--|


  PM PM     PM     PM          PM PM                          
  E  E   E  E   E  E   Q       E  E  S S S S S S S S S S S S  
----------------------------|--------------------------------|
----------------------------|--------------------------------|
----------------------------|--------------------------------|
----------------------------|------------------------8-8-8-8-|
--------10-----10-----10----|--0--0--8-8-8-8-7-7-7-7---------|
--0--0------0------0--------|--0--0--------------------------|


                                         PM PM                          
  S S S S  S  S  S  S S S S S S S S S    E  E  S S S S S S S S S S S S  
--------------------------------------|--------------------------------|
--------------------------------------|--------------------------------|
--------------------------------------|--------------------------------|
--7-7-7-7-----------------------------|------------------------8-8-8-8-|
----------10-10-10-10-8-8-8-8-7-7-7-7-|--0--0--8-8-8-8-7-7-7-7---------|
--------------------------------------|--0--0--------------------------|


                                         PM PM                          
  S S S S S S S S  S  S  S  S S S S S    E  E  S S S S S S S S S S S S  
--------------------------------------|--------------------------------|
--------------------------------------|--------------------------------|
--------------------------------------|--------------------------------|
--7-7-7-7-8-8-8-8-10-10-10-10-8-8-8-8-|------------------------8-8-8-8-|
--------------------------------------|--0--0--8-8-8-8-7-7-7-7---------|
--------------------------------------|--0--0--------------------------|


                                         PM PM    PM    PM    PM  
  S S S S  S  S  S  S S S S S S S S S    E  E  E  E  E  E  E  E   
--------------------------------------|--------------------------|
--------------------------------------|--------------------------|
--------------------------------------|--------------------------|
--7-7-7-7-----------------------------|--------7-----7-----7-----|
----------10-10-10-10-8-8-8-8-7-7-7-7-|--------------------------|
--------------------------------------|--0--0-----0-----0-----0--|


  PM PM     PM     PM          PM PM                          
  E  E   E  E   E  E   Q       E  E  S S S S S S S S S S S S  
----------------------------|--------------------------------|
----------------------------|--------------------------------|
----------------------------|--------------------------------|
----------------------------|------------------------8-8-8-8-|
--------10-----10-----10----|--0--0--8-8-8-8-7-7-7-7---------|
--0--0------0------0--------|--0--0--------------------------|


                                         PM PM                          
  S S S S  S  S  S  S S S S S S S S S    E  E  S S S S S S S S S S S S  
--------------------------------------|--------------------------------|
--------------------------------------|--------------------------------|
--------------------------------------|--------------------------------|
--7-7-7-7-----------------------------|------------------------8-8-8-8-|
----------10-10-10-10-8-8-8-8-7-7-7-7-|--0--0--8-8-8-8-7-7-7-7---------|
--------------------------------------|--0--0--------------------------|


                                         PM PM                          
  S S S S S S S S  S  S  S  S S S S S    E  E  S S S S S S S S S S S S  
--------------------------------------|--------------------------------|
--------------------------------------|--------------------------------|
--------------------------------------|--------------------------------|
--7-7-7-7-8-8-8-8-10-10-10-10-8-8-8-8-|------------------------8-8-8-8-|
--------------------------------------|--0--0--8-8-8-8-7-7-7-7---------|
--------------------------------------|--0--0--------------------------|


                                         PM PM    PM    PM    PM  
  S S S S  S  S  S  S S S S S S S S S    E  E  E  E  E  E  E  E   
--------------------------------------|--------------------------|
--------------------------------------|--------------------------|
--------------------------------------|--------------------------|
--7-7-7-7-----------------------------|--------7-----7-----7-----|
----------10-10-10-10-8-8-8-8-7-7-7-7-|--------------------------|
--------------------------------------|--0--0-----0-----0-----0--|


  PM PM     PM     PM          PM PM PM       PM PM    PM                
  E  E   E  E   E  E   Q       E  E  H        E  E     W                 
----------------------------|-----------------------|-------------------|
----------------------------|-----------------------|-------------------|
----------------------------|-----------------------|-------------------|
----------------------------|-----------------------|-------------------|
--------10-----10-----10----|--0--0--0--------0--0--|--0----------------|
--0--0------0------0--------|--0--0--0--------0--0--|--0----------------|


  PM PM PM       PM PM    PM                  PM PM PM       PM PM  
  E  E  H        E  E     W                   E  E  H        E  E   
-----------------------|-------------------|-----------------------|
-----------------------|-------------------|-----------------------|
-----------------------|-------------------|-----------------------|
-----------------------|-------------------|-----------------------|
--0--0--0--------0--0--|--0----------------|--0--0--0--------0--0--|
--0--0--0--------0--0--|--0----------------|--0--0--0--------0--0--|


  PM                  PM PM PM       PM PM    PM                   
  W                   E  E  H        E  E     H         H          
-------------------|-----------------------|----------------------|
-------------------|-----------------------|----------------------|
-------------------|-----------------------|----------------------|
-------------------|-----------------------|----------------------|
--0----------------|--0--0--0--------0--0--|--0--------12\--------|
--0----------------|--0--0--0--------0--0--|--0--------12\--------|


  PM PM PM       PM PM    PM                  PM PM PM       PM PM  
  E  E  H        E  E     W                   E  E  H        E  E   
-----------------------|-------------------|-----------------------|
-----------------------|-------------------|-----------------------|
-----------------------|-------------------|-----------------------|
-----------------------|-------------------|-----------------------|
--0--0--0--------0--0--|--0----------------|--0--0--0--------0--0--|
--0--0--0--------0--0--|--0----------------|--0--0--0--------0--0--|


  PM                  PM PM PM       PM PM    PM                
  W                   E  E  H        E  E     W                 
-------------------|-----------------------|-------------------|
-------------------|-----------------------|-------------------|
-------------------|-----------------------|-------------------|
-------------------|-----------------------|-------------------|
--0----------------|--0--0--0--------0--0--|--0----------------|
--0----------------|--0--0--0--------0--0--|--0----------------|


  PM       PM          PM       PM          PM   PM   PM   PM    
  H        H           H        H           Q    Q    Q    Q     
--------------------|--------------------|----------------------|
--------------------|--------------------|----------------------|
--------------------|--------------------|----------------------|
--------------------|--------------------|----------------------|
--0--------4--------|--3--------1--------|--0----0----1----0----|
--0--------4--------|--3--------1--------|--0----0----1----0----|


  PM   PM   PM   PM      PM   PM   PM   PM      PM   PM   PM   PM    
  Q    Q    Q    Q       Q    Q    Q    Q       Q    Q    Q    Q     
----------------------|----------------------|----------------------|
----------------------|----------------------|----------------------|
----------------------|----------------------|----------------------|
----------------------|----------------------|----------------------|
--0----4----3----1----|--0----0----1----0----|--0----4----3----1----|
--0----4----3----1----|--0----0----1----0----|--0----4----3----1----|


  PM   PM   PM   PM      PM   PM   PM   PM            PM         PM    
  Q    Q    Q    Q       Q    Q    Q    Q       Q     Q    Q     Q     
----------------------|----------------------|------------------------|
----------------------|----------------------|------------------------|
----------------------|----------------------|--7b---------7b---------|
----------------------|----------------------|------------------------|
--0----0----1----0----|--0----4----3----1----|--5b----0----5b----0----|
--0----0----1----0----|--0----4----3----1----|--------0----------0----|


        PM                PM   PM   PM   PM      PM   PM   PM   PM    
  Q     Q    H            Q    Q    Q    Q       Q    Q    Q    Q     
-----------------------|----------------------|----------------------|
-----------------------|----------------------|----------------------|
--6b---------6\--------|----------------------|----------------------|
-----------------------|----------------------|----------------------|
--4b----0----4\--------|--0----0----1----0----|--0----4----3----1----|
--------0--------------|--0----0----1----0----|--0----4----3----1----|


  PM   PM   PM   PM      PM   PM   PM   PM      PM   PM   PM   PM    
  Q    Q    Q    Q       Q    Q    Q    Q       Q    Q    Q    Q     
----------------------|----------------------|----------------------|
----------------------|----------------------|----------------------|
----------------------|----------------------|----------------------|
----------------------|----------------------|----------------------|
--0----0----1----0----|--0----4----3----1----|--0----0----1----0----|
--0----0----1----0----|--0----4----3----1----|--0----0----1----0----|


  PM   PM   PM   PM            PM         PM            PM             
  Q    Q    Q    Q       Q     Q    Q     Q       Q     Q    H         
----------------------|------------------------|----------------------|
----------------------|------------------------|----------------------|
----------------------|--7b---------7b---------|--6b---------6--------|
----------------------|------------------------|----------------------|
--0----4----3----1----|--5b----0----5b----0----|--4b----0----4--------|
--0----4----3----1----|--------0----------0----|--------0-------------|


  yeah man !!!!!!!!                      
  W                    W                 
--------------------|-------------------|
--------------------|-------------------|
--------------------|-------------------|
--------------------|-------------------|
--------------------|-------------------|
--------------------|-------------------|


  yeeeeeeeaaaahh  mannnnnnnnnnnnnnnnnnnnnnnn                      
  W                                             W                 
---------------------------------------------|-------------------|
---------------------------------------------|-------------------|
---------------------------------------------|-------------------|
---------------------------------------------|-------------------|
---------------------------------------------|-------------------|
---------------------------------------------|-------------------|


                                             PM   PM   PM   PM    
  W                   H         H            Q    Q    Q    Q     
-------------------|----------------------|----------------------|
-------------------|----------------------|----------------------|
-------------------|----------------------|----------------------|
-------------------|----------------------|----------------------|
-------------------|-----------12\--------|--0----0----1----0----|
-------------------|-----------12\--------|--0----0----1----0----|


  PM   PM   PM   PM      PM   PM   PM   PM      PM   PM   PM   PM    
  Q    Q    Q    Q       Q    Q    Q    Q       Q    Q    Q    Q     
----------------------|----------------------|----------------------|
----------------------|----------------------|----------------------|
----------------------|----------------------|----------------------|
----------------------|----------------------|----------------------|
--0----4----3----1----|--0----0----1----0----|--0----4----3----1----|
--0----4----3----1----|--0----0----1----0----|--0----4----3----1----|


  PM   PM   PM   PM      PM   PM   PM   PM            PM         PM    
  Q    Q    Q    Q       Q    Q    Q    Q       Q     Q    Q     Q     
----------------------|----------------------|------------------------|
----------------------|----------------------|------------------------|
----------------------|----------------------|--7b---------7b---------|
----------------------|----------------------|------------------------|
--0----0----1----0----|--0----4----3----1----|--5b----0----5b----0----|
--0----0----1----0----|--0----4----3----1----|--------0----------0----|


        PM                PM   PM   PM   PM      PM   PM   PM   PM    
  Q     Q    H            Q    Q    Q    Q       Q    Q    Q    Q     
-----------------------|----------------------|----------------------|
-----------------------|----------------------|----------------------|
--6b---------6\--------|----------------------|----------------------|
-----------------------|----------------------|----------------------|
--4b----0----4\--------|--0----0----1----0----|--0----4----3----1----|
--------0--------------|--0----0----1----0----|--0----4----3----1----|


  PM   PM   PM   PM      PM   PM   PM   PM      PM   PM   PM   PM    
  Q    Q    Q    Q       Q    Q    Q    Q       Q    Q    Q    Q     
----------------------|----------------------|----------------------|
----------------------|----------------------|----------------------|
----------------------|----------------------|----------------------|
----------------------|----------------------|----------------------|
--0----0----1----0----|--0----4----3----1----|--0----0----1----0----|
--0----0----1----0----|--0----4----3----1----|--0----0----1----0----|


  PM   PM   PM   PM            PM         PM            PM              
  Q    Q    Q    Q       Q     Q    Q     Q       Q     Q    H          
----------------------|------------------------|-----------------------|
----------------------|------------------------|-----------------------|
----------------------|--7b---------7b---------|--6b---------6\--------|
----------------------|------------------------|-----------------------|
--0----4----3----1----|--5b----0----5b----0----|--4b----0----4\--------|
--0----4----3----1----|--------0----------0----|--------0--------------|


  PM   PM   PM   PM      PM   PM   PM   PM      PM   PM   PM   PM    
  Q    Q    Q    Q       Q    Q    Q    Q       Q    Q    Q    Q     
----------------------|----------------------|----------------------|
----------------------|----------------------|----------------------|
----------------------|----------------------|----------------------|
----------------------|----------------------|----------------------|
--0----0----1----0----|--0----4----3----1----|--0----0----1----0----|
--0----0----1----0----|--0----4----3----1----|--0----0----1----0----|


  PM   PM   PM   PM      PM   PM   PM   PM      PM   PM   PM   PM    
  Q    Q    Q    Q       Q    Q    Q    Q       Q    Q    Q    Q     
----------------------|----------------------|----------------------|
----------------------|----------------------|----------------------|
----------------------|----------------------|----------------------|
----------------------|----------------------|----------------------|
--0----4----3----1----|--0----0----1----0----|--0----4----3----1----|
--0----4----3----1----|--0----0----1----0----|--0----4----3----1----|


  PM           PM               PM               PM            
  H.           Q       H        H           Q    H.            
--------------------|--------------------|--------------------|
--------------------|--------------------|--------------------|
--------------------|--------------------|--------------------|
--------------------|--------------------|--------------------|
--0------------0----|--L--------0--------|--L----0------------|
--0------------0----|--L--------0--------|--L----0------------|


  PM   PM   PM   PM      PM   PM   PM   PM      PM   PM   PM   PM    
  Q    Q    Q    Q       Q    Q    Q    Q       Q    Q    Q    Q     
----------------------|----------------------|----------------------|
----------------------|----------------------|----------------------|
----------------------|----------------------|----------------------|
----------------------|----------------------|----------------------|
--0----0----1----0----|--0----4----3----1----|--0----0----1----0----|
--0----0----1----0----|--0----4----3----1----|--0----0----1----0----|


  PM   PM   PM   PM      PM   PM   PM   PM      PM   PM   PM   PM    
  Q    Q    Q    Q       Q    Q    Q    Q       Q    Q    Q    Q     
----------------------|----------------------|----------------------|
----------------------|----------------------|----------------------|
----------------------|----------------------|----------------------|
----------------------|----------------------|----------------------|
--0----4----3----1----|--0----0----1----0----|--0----4----3----1----|
--0----4----3----1----|--0----0----1----0----|--0----4----3----1----|


  PM           PM               PM               PM            
  H.           Q       H        H           Q    H.            
--------------------|--------------------|--------------------|
--------------------|--------------------|--------------------|
--------------------|--------------------|--------------------|
--------------------|--------------------|--------------------|
--0------------0----|--L--------0--------|--L----0------------|
--0------------0----|--L--------0--------|--L----0------------|


  PM PM PM       PM PM          PM PM       PM PM PM  
  E  E  E  E  E  E  E  E     E  E  E  E  E  E  E  E   
--------------------------|--------------------------|
--------------------------|--------------------------|
--------------------------|--------------------------|
--------------------------|--------------------------|
--0--0--0--5--4--0--0--4--|--1--0--0--1--0--0--0--0--|
--0--0--0--5--4--0--0--4--|--1--0--0--1--0--0--0--0--|


  PM PM PM       PM PM          PM PM       PM PM PM  
  E  E  E  E  E  E  E  E     E  E  E  E  E  E  E  E   
--------------------------|--------------------------|
--------------------------|--------------------------|
--------------------------|--------------------------|
--------------------------|--------------------------|
--0--0--0--5--4--0--0--4--|--1--0--0--1--0--0--0--0--|
--0--0--0--5--4--0--0--4--|--1--0--0--1--0--0--0--0--|


  PM PM PM       PM PM          PM PM       PM PM PM  
  E  E  E  E  E  E  E  E     E  E  E  E  E  E  E  E   
--------------------------|--------------------------|
--------------------------|--------------------------|
--------------------------|--------------------------|
--------------------------|--------------------------|
--0--0--0--5--4--0--0--4--|--1--0--0--1--0--0--0--0--|
--0--0--0--5--4--0--0--4--|--1--0--0--1--0--0--0--0--|


  PM PM PM                                       PM PM PM       PM PM     
  E  E  E  E  Q.     E     Q.     E  H           E  E  E  E  E  E  E  E   
------------------------|---------------------|--------------------------|
------------------------|---------------------|--------------------------|
------------------------|---------------------|--------------------------|
------------------------|---------------------|--------------------------|
--0--0--0--5--4------4--|--1------1--0--------|--0--0--0--5--4--0--0--4--|
--0--0--0--5--4------4--|--1------1--0--------|--0--0--0--5--4--0--0--4--|


     PM PM       PM PM PM    PM PM PM       PM PM     
  E  E  E  E  E  E  E  E     E  E  E  E  E  E  E  E   
--------------------------|--------------------------|
--------------------------|--------------------------|
--------------------------|--------------------------|
--------------------------|--------------------------|
--1--0--0--1--0--0--0--0--|--0--0--0--5--4--0--0--4--|
--1--0--0--1--0--0--0--0--|--0--0--0--5--4--0--0--4--|


     PM PM       PM PM PM    PM PM PM       PM PM     
  E  E  E  E  E  E  E  E     E  E  E  E  E  E  E  E   
--------------------------|--------------------------|
--------------------------|--------------------------|
--------------------------|--------------------------|
--------------------------|--------------------------|
--1--0--0--1--0--0--0--0--|--0--0--0--5--4--0--0--4--|
--1--0--0--1--0--0--0--0--|--0--0--0--5--4--0--0--4--|


     PM PM       PM PM PM    PM PM PM       PM PM     
  E  E  E  E  E  E  E  E     E  E  E  E  E  E  E  E   
--------------------------|--------------------------|
--------------------------|--------------------------|
--------------------------|--------------------------|
--------------------------|--------------------------|
--1--0--0--1--0--0--0--0--|--0--0--0--5--4--0--0--4--|
--1--0--0--1--0--0--0--0--|--0--0--0--5--4--0--0--4--|


     PM PM       PM PM PM    PM PM PM                                     
  E  E  E  E  E  E  E  E     E  E  E  E  Q.     E     Q.     E  H         
--------------------------|------------------------|---------------------|
--------------------------|------------------------|---------------------|
--------------------------|------------------------|---------------------|
--------------------------|------------------------|---------------------|
--1--0--0--1--0--0--0--0--|--0--0--0--5--4------4--|--1------1--0--------|
--1--0--0--1--0--0--0--0--|--0--0--0--5--4------4--|--1------1--0--------|


  PM PM PM                                       PM PM PM               
  E  E  E  E  Q.     E     Q.     E  H           E  E  E  E  Q.     E   
------------------------|---------------------|------------------------|
------------------------|---------------------|------------------------|
------------------------|---------------------|------------------------|
------------------------|---------------------|------------------------|
--0--0--0--5--4------4--|--1------1--0--------|--0--0--0--5--4------4--|
--0--0--0--5--4------4--|--1------1--0--------|--0--0--0--5--4------4--|


                        PM PM PM                                        
  Q.     E  H           E  E  E  E  Q.     E     Q.     E  E  E  E  E   
---------------------|------------------------|------------------------|
---------------------|------------------------|------------------------|
---------------------|------------------------|------------------------|
---------------------|------------------------|------------------------|
--1------1--0--------|--0--0--0--5--4------4--|--1------1--0--0--0--0--|
--1------1--0--------|--0--0--0--5--4------4--|--1------1--0--0--0--0--|


  W                   W                   W                 
-------------------|-------------------|-------------------|
-------------------|-------------------|-------------------|
-------------------|-------------------|-------------------|
-------------------|-------------------|-------------------|
--0----------------|--L----------------|--L----------------|
--0----------------|--L----------------|--L----------------|


  W                   W                   W                 
-------------------|-------------------|-------------------|
-------------------|-------------------|-------------------|
-------------------|-------------------|-------------------|
-------------------|-------------------|-------------------|
--L----------------|--L----------------|--L----------------|
--L----------------|--L----------------|--L----------------|


                      PM   PM   PM PM PM      PM   PM   PM   PM    
  W                   Q    Q    E  E  Q       Q    Q    Q    Q     
-------------------|-----------------------|----------------------|
-------------------|-----------------------|----------------------|
-------------------|-----------------------|----------------------|
-------------------|-----------------------|----------------------|
--L----------------|--3----1----0--0--1----|--0----4----1----0----|
--L----------------|--3----1----0--0--1----|--0----4----1----0----|


  PM   PM   PM PM PM      PM   PM   PM   PM      PM   PM   PM PM PM    
  Q    Q    E  E  Q       Q    Q    Q    Q       Q    Q    E  E  Q     
-----------------------|----------------------|-----------------------|
-----------------------|----------------------|-----------------------|
-----------------------|----------------------|-----------------------|
-----------------------|----------------------|-----------------------|
--3----1----0--0--1----|--0----4----1----0----|--3----1----0--0--1----|
--3----1----0--0--1----|--0----4----1----0----|--3----1----0--0--1----|


  PM   PM   PM   PM      PM   PM   PM PM PM      PM   PM   PM   PM    
  Q    Q    Q    Q       Q    Q    E  E  Q       Q    Q    Q    Q     
----------------------|-----------------------|----------------------|
----------------------|-----------------------|----------------------|
----------------------|-----------------------|----------------------|
----------------------|-----------------------|----------------------|
--0----4----1----0----|--3----1----0--0--1----|--0----4----1----0----|
--0----4----1----0----|--3----1----0--0--1----|--0----4----1----0----|


  PM   PM   PM PM         PM   PM   PM   PM      PM   PM   PM PM PM    
  Q    Q    E  E  Q       Q    Q    Q    Q       Q    Q    E  E  Q     
-----------------------|----------------------|-----------------------|
-----------------------|----------------------|-----------------------|
-----------------------|----------------------|-----------------------|
-----------------------|----------------------|-----------------------|
--3----1----0--0--1----|--0----4----1----0----|--3----1----0--0--1----|
--3----1----0--0--1----|--0----4----1----0----|--3----1----0--0--1----|


  PM   PM   PM   PM      PM   PM   PM PM PM      PM   PM   PM   PM    
  Q    Q    Q    Q       Q    Q    E  E  Q       Q    Q    Q    Q     
----------------------|-----------------------|----------------------|
----------------------|-----------------------|----------------------|
----------------------|-----------------------|----------------------|
----------------------|-----------------------|----------------------|
--0----4----1----0----|--3----1----0--0--1----|--0----4----1----0----|
--0----4----1----0----|--3----1----0--0--1----|--0----4----1----0----|


  PM   PM   PM PM PM      PM   PM   PM   PM      PM   PM   PM PM       
  Q    Q    E  E  Q       Q    Q    Q    Q       Q    Q    E  E  Q     
-----------------------|----------------------|-----------------------|
-----------------------|----------------------|-----------------------|
-----------------------|----------------------|-----------------------|
-----------------------|----------------------|-----------------------|
--3----1----0--0--1----|--0----4----1----0----|--3----1----0--0--1----|
--3----1----0--0--1----|--0----4----1----0----|--3----1----0--0--1----|


  W                   W                   W                 
-------------------|-------------------|-------------------|
-------------------|-------------------|-------------------|
-------------------|-------------------|--3----------------|
--0----------------|--L----------------|-------------------|
--0----------------|--L----------------|--1----------------|
--0----------------|--L----------------|-------------------|


  W                   W                   W                 
-------------------|-------------------|-------------------|
-------------------|-------------------|-------------------|
--L----------------|-------------------|-------------------|
-------------------|--0----------------|--L----------------|
--L----------------|--0----------------|--L----------------|
-------------------|--0----------------|--L----------------|


  W                   W                   W                 
-------------------|-------------------|-------------------|
-------------------|-------------------|-------------------|
--3----------------|--L----------------|-------------------|
-------------------|-------------------|--0----------------|
--1----------------|--L----------------|--0----------------|
-------------------|-------------------|--0----------------|


  W                   W                   W                 
-------------------|-------------------|-------------------|
-------------------|-------------------|-------------------|
-------------------|--3----------------|--L----------------|
--L----------------|-------------------|-------------------|
--L----------------|--1----------------|--L----------------|
--L----------------|-------------------|-------------------|


                                          PM       PM        
  W                   W                   H        H         
-------------------|-------------------|--------------------|
-------------------|-------------------|--------------------|
-------------------|-------------------|--------------------|
--0----------------|--L----------------|--------------------|
--0----------------|--L----------------|--4--------1--------|
--0----------------|--L----------------|--4--------1--------|


  PM                   PM   PM   PM   PM      PM   PM   PM PM PM    
  H        H           Q    Q    Q    Q       Q    Q    E  E  Q     
--------------------|----------------------|-----------------------|
--------------------|----------------------|-----------------------|
--------------------|----------------------|-----------------------|
-----------1--------|----------------------|-----------------------|
--0--------1--------|--0----4----1----0----|--3----1----0--0--1----|
--0--------1--------|--0----4----1----0----|--3----1----0--0--1----|


  PM   PM   PM   PM      PM   PM   PM PM         PM   PM   PM   PM    
  Q    Q    Q    Q       Q    Q    E  E  Q       Q    Q    Q    Q     
----------------------|-----------------------|----------------------|
----------------------|-----------------------|----------------------|
----------------------|-----------------------|----------------------|
----------------------|------------------1----|----------------------|
--0----4----1----0----|--3----1----0--0--1----|--0----4----1----0----|
--0----4----1----0----|--3----1----0--0--1----|--0----4----1----0----|


  PM   PM   PM PM PM      PM   PM   PM   PM      PM   PM   PM PM       
  Q    Q    E  E  Q       Q    Q    Q    Q       Q    Q    E  E  Q     
-----------------------|----------------------|-----------------------|
-----------------------|----------------------|-----------------------|
-----------------------|----------------------|-----------------------|
-----------------------|----------------------|------------------1----|
--3----1----0--0--1----|--0----4----1----0----|--3----1----0--0--1----|
--3----1----0--0--1----|--0----4----1----0----|--3----1----0--0--1----|


  E  E  H.             
---------------------||
---------------------||
---------------------||
---------------------||
--0------------------||
--0------------------||

END


Duration Legend
---------------
W - whole
H - half
Q - quarter
E - 8th
S - 16th
T - 32nd
X - 64th



Tablature Legend
----------------
L - tied note
h - hammer on
p - pull off
b - bend
S - shift slide
s - legato slide
/ -  slide into from below or out of upwards
\ -  slide into from above or out of downwards
~ - vibrato
W - wide vibrato
tr - trill
TP - tremolo picking

            
            
Suggest correction
Creating personal tab
Creating personal tab
You can edit any tab online and save it as your Personal.

You can edit, replace or remove any tab part or add personal notes – all changes will be seen only by you.

Personal tabs can be accessed anytime from any device, even offline.
Learn more »
Give kudos to tab author, rate the tab!
1 2 3 4 5
comments
print report bad tab
guest
You may want to rate the tab now too:
select rating
Wanna post a correction for this tab? Suggest correction