Oops, an error
Loading. Please wait.

Stumblin bass

1,253 views 1 this week
no commentswrite comment
1 2 3 4 5
2 more votes to show rating
add to favorites
×
Save as Personal and add changes to this tab that will be seen only by you. Learn more ›
×
You can save this tab as Personal to edit and correct it or add notes. All changes will be seen only by you. Learn more »
launch autoscroll
font size
0
reset
guitar tuner
edit
Autoscroll
slow
fast
+/-
esc
set tempo
stop
Author
Hey there, second tab. More of less just the way I play it, but I think it's pretty
The real song - if you listen very carefully - has a couple of variations in the verse riff.
tabbed out my personal variations, but I'm not 100% sure if they're exactly the same as 
album version. Everything else though I feel is pretty spot on.

The song sounds just as good without the variations, I just thought I'd tab them for
who wanted to know. The bass run behind the solo is pretty audible, I don't know why so
covering bassists miss it...


Verse Riff
G---------------------------------|
D---------------------------------|
A-------7----7-----555------------|
E---00---00----0------------------|

Chorus Riff(a)
G--------------------------------|
D--------------------------------|
A--22------552525----00000000----|
E------33------------------------|

Chorus Riff(b)
G--------------------------------|
D--------------------------------|
A--22------552525----------------|
E------33------------------------|


Bridge Riff
G---------------------------------|
D---------------------------------|
A---2--------5---7----------------|
E-------/3------------------------|

Bass!
G----------------------------------------|
D----------------------------------------|
A----------------------------------------|
E--12-10-0-12-10-0-12-10-0-101010101010--|

Variation 1 (after "Morose")
G---------------------------------|
D---------------------------------|
A-------7----7-----575785---------|
E---00---00----0------------------|

Variation 2 (after "Alone")
G---------------------------------|
D---------------------------------|
A-------7----7-----5//7-----------|
E---00---00----0------------------|

Bass run behind solo
G--------------------------------------------|
D--------------------------------------------|
A-5/12h13p12--10h12p10-8---8---8h10-8--------|
E-----------------------9---9--------9--7--9-|

Order

Rest until Fanning starts singing
Verse Riff  x 3
Variation 1 x 1
Verse Riff  x 4
Chorus Riff(a) x 2
Chorus Riff(b) x 2
Bass Run (or just play Verse Riff) x 1
Verse Riff  x 3
Variation 2 x 2
Verse Riff  x4
Chorus Riff(a) x2
Chorus Riff(b) x4
Bridge x1
Bass! x6
Verse Riff x4
Chorus(a) x2
Chorus(b) x4

            
            
Suggest correction
Creating personal tab
Creating personal tab
You can edit any tab online and save it as your Personal.

You can edit, replace or remove any tab part or add personal notes – all changes will be seen only by you.

Personal tabs can be accessed anytime from any device, even offline.
Learn more »
Give kudos to tab author, rate the tab!
1 2 3 4 5
comments
print report bad tab
guest
You may want to rate the tab now too:
select rating
Wanna post a correction for this tab? Suggest correction