Oops, an error
Loading. Please wait.

The End Is Over tab

324 views 1 this week
no commentswrite comment
1 2 3 4 5
2 more votes to show rating
add to favorites
×
Save as Personal and add changes to this tab that will be seen only by you. Learn more ›
×
You can save this tab as Personal to edit and correct it or add notes. All changes will be seen only by you. Learn more »
launch autoscroll
font size
0
reset
how to read this tab
guitar tuner
edit
Autoscroll
slow
fast
+/-
esc
set tempo
stop
Tabbed by: Joshua Garcia (joshuag523@aol.com)

Tabs for the song: The End Is Over by Powerman 5000
Please rate and let me know if you have any corrections. Thank you.

This song is from the Titan A.E. Soundtrack. It's kind of old, (and easy to play) but it is really 
awesome! The album itself isn't half bad. They have some good songs on it like Cosmic Castaway by 
Electracy, Not Quite Paradise by Bliss 66, Over My Head by Lit, and of course this song, which is
(in my opinion) the best song off the whole album.

(p.s. Coincidentally tabbed on the same day of the new P5K album: Somewhere on the Other Side of 
Nowhere, go listen to it!)


Tuning: Drop C# (C# G# C# F# A# D#)
                                                                             

Intro:
D#||---------------------------------------|----------------------------------------------------|
A#||---------------------------------------|----------------------------------------------------|
F#||---------------------------------------|----------------------------------------------------|
C#||---3-----------3------------3----------|---3-----------3------------3-----------------------|x2
G#||-------3-----------3--2---------3------|-------3-----------3--2---------3-------------------|
C#||-0---------3-0----------0----------3-0-|-0---------3-0----------0---------0-5-3-0-5-3-0-5-3-|
  

D#||---------------------------------------|----------------------------------------------------|
A#||---------------------------------------|----------------------------------------------------|
F#||---------------------------------------|----------------------------------------------------|
C#||---3-----------3------------3----------|---3-----------3------------3-------5-3-0-5-3-0-5-3-|
G#||-------3-----------3--2---------3------|-------3-----------3--2---------3---5-3-0-5-3-0-5-3-|
C#||-0---------3-0----------0----------3-0-|-0---------3-0----------0---------0-5-3-0-5-3-0-5-3-|



Chorus:
D#||---------------------------------------------------------------|
A#||---------------------------------------------------------------|
F#||---------------------------------------------------------------|
C#||-666------------666------------666-----------------------------| x2
G#||-666------------666------------666-----------------------------|
C#||-666--5~--3-0---666--5~--3-0---666--5~--3-0---5-3-0-5-3-0-5-3--|



Verse
D#||---------------------------------------|----------------------------------------------------|
A#||---------------------------------------|----------------------------------------------------|
F#||---------------------------------------|----------------------------------------------------|
C#||---3-----------3------------3----------|---3-----------3------------3-----------------------|
G#||-------3-----------3--2---------3------|-------3-----------3--2---------3-------------------|
C#||-0---------3-0----------0----------3-0-|-0---------3-0----------0---------0-5-3-0-5-3-0-5-3-|
  

D#||---------------------------------------|----------------------------------------------------|
A#||---------------------------------------|----------------------------------------------------|
F#||---------------------------------------|----------------------------------------------------|
C#||---3-----------3------------3----------|---3-----------3------------3-------5-3-0-5-3-0-5-3-|
G#||-------3-----------3--2---------3------|-------3-----------3--2---------3---5-3-0-5-3-0-5-3-|
C#||-0---------3-0----------0----------3-0-|-0---------3-0----------0---------0-5-3-0-5-3-0-5-3-|



Chorus:
D#||---------------------------------------------------------------|
A#||---------------------------------------------------------------|
F#||---------------------------------------------------------------|
C#||-666------------666------------666-----------------------------|
G#||-666------------666------------666-----------------------------|
C#||-666--5~--3-0---666--5~--3-0---666--5~--3-0---5-3-0-5-3-0-5-3--|


D#||-----------------------------------------------------------------|
A#||-----------------------------------------------------------------|
F#||-----------------------------------------------------------------|
C#||-666------------666------------666----------------------------0~-|
G#||-666------------666------------666----------------------------0~-|
C#||-666--5~--3-0---666--5~--3-0---666--5~--3-0---5-3-0-5-3-0-5-3-0~-|



Bridge
D#||------------------------------|
A#||------------------------------|
F#||---7~-----10~-----5~-----7~---|
C#||---x------x-------x------x----| x3
G#||---5~-----8~------3~-----5~---|
C#||------------------------------|


D#||------------------------------------------|
A#||------------------------------------------|
F#||---7~-----10~-----5~----------------------|
C#||---x------x-------x------5-3-0-5-3-0-5-3--|
G#||---5~-----8~------3~-----5-3-0-5-3-0-5-3--|
C#||-------------------------5-3-0-5-3-0-5-3--|



Chorus / Outro:
D#||---------------------------------------------------------------|
A#||---------------------------------------------------------------|
F#||---------------------------------------------------------------|
C#||-666------------666------------666-----------------------------| x3
G#||-666------------666------------666-----------------------------|
C#||-666--5~--3-0---666--5~--3-0---666--5~--3-0---5-3-0-5-3-0-5-3--|


D#||---------------------------------------------|
A#||---------------------------------------------|
F#||---------------------------------------------|
C#||-666------------666------------666-----------|
G#||-666------------666------------666-----------|
C#||-666--5~--3-0---666--5~--3-0---666--5~--3-0--|


D#||------------------------------------------------------|
A#||------------------------------------------------------|
F#||------------------------------------------------------|
C#||--------------------------------------------------0---|
G#||--------------------------------------------------0---|
C#||--5-3-0-5-3-0-5-3-5-3-0-5-3-0-5-3-5-3-0-5-3-0-5-3-0---|




Tablature Legend
----------------
 h   hammer-on
 p   pull-off
 b   bend
 pb  pre-bend
 r   release bend
 ~   hold / vibrato
 .   palm mute
 /   slide up
 \   slide down
 *   pinch harmonic
 '   natural harmonic
 x   mute note
 T   tap

            
            
Suggest correction
Creating personal tab
Creating personal tab
You can edit any tab online and save it as your Personal.

You can edit, replace or remove any tab part or add personal notes – all changes will be seen only by you.

Personal tabs can be accessed anytime from any device, even offline.
Learn more »
Give kudos to tab author, rate the tab!
1 2 3 4 5
comments
print report bad tab
guest
You may want to rate the tab now too:
select rating
Wanna post a correction for this tab? Suggest correction