Oops, an error
Loading. Please wait.

Palabras Invisibles tab

version 1
version 1

Whole song

26 views 1 this week
no commentswrite comment
1 2 3 4 5
3 more votes to show rating
add to favorites
×
Save as Personal and add changes to this tab that will be seen only by you. Learn more ›
×
You can save this tab as Personal to edit and correct it or add notes. All changes will be seen only by you. Learn more »
launch autoscroll
font size
0
reset
how to read this tab
guitar tuner
edit
Autoscroll
slow
fast
+/-
esc
set tempo
stop
pOES aKI Sta sTa ROLITA BN PRO DEL POYO
SPERO Q ESTE BIEN HECHA HEHE Y Q LES GUSTE ok


Intro
e| |------------------------------|
B| |----3-----5----3--------------|
G| |--0----------------0----------|
D| |5-----------------------------|
A| |------------------------------|
E| |------------------------------|

e| |---------------------|----------------------|
B| |----3-----------3----|-----3--------3-------|
G| |--0-----0----0----0--|---0---0----0----0----|
D| |5----------5---------|-4--------4-----------|
A| |---------------------|----------------------|
E| |---------------------|----------------------|
                                                  x3
e| |---------------------|----------------------|
B| |----3-----------3----|-----3--------3-------|
G| |--0-----0----0----0--|---0---0----0----0----|
D| |2----------2---------|-0--------0-----------|
A| |---------------------|----------------------|
E| |---------------------|----------------------|

bajeo
e| |------------------------------|
B| |------------------------------|
G| |------------------------------|
D| |------------------------------|
A| |-3-3-2-0----------------------|
E| |---------3--------------------|


Quédate  mírame  caer

e| |--------------------|------------------|---------------
B| |----3-----5----3----|-----3----5---3---|----3---5---3--
G| |--0----0-----0----0-|---0---0----0---0-|--0---0---0---0
D| |5-------------------|-4----------------|2--------------
A| |--------------------|------------------|---------------
E| |--------------------|------------------|---------------

tan solo mírame caer

e| |--------------------|
B| |----3-----5----3----|
G| |--0----0-----0----0-|
D| |0-------------------|
A| |--------------------|
E| |--------------------|


habla ya suelta el coraje y no me guardes

e| |--------------------|------------------|---------------
B| |----3-----5----3----|-----3----5---3---|----3---5---3--
G| |--0----0-----0----0-|---0---0----0---0-|--0---0---0---0
D| |5-------------------|-4----------------|2--------------
A| |--------------------|------------------|---------------
E| |--------------------|------------------|---------------

mas rencor amor

e| |--------------------|
B| |----3-----5----3----|
G| |--0----0-----0----0-|
D| |0-------------------|
A| |--------------------|
E| |--------------------|

kiero decir q te kedes junto a mi
e| |--------------------|------------------|---------------
B| |----3-----5----3----|-----3----5---3---|----3---5---3--
G| |--0----0-----0----0-|---0---0----0---0-|--0---0---0---0
D| |5-------------------|-4----------------|2--------------
A| |--------------------|------------------|---------------
E| |--------------------|------------------|---------------

pero se q tu respuesta es no
e| |--------------------|
B| |----3-----5----3----|
G| |--0----0-----0----0-|
D| |0-------------------|
A| |--------------------|
E| |--------------------|


así es q amor guardo todo mi
e| |--------------------|------------------|---------------
B| |----3-----5----3----|-----3----5---3---|----3---5---3--
G| |--0----0-----0----0-|---0---0----0---0-|--0---0---0---0
D| |5-------------------|-4----------------|2--------------
A| |--------------------|------------------|---------------
E| |--------------------|------------------|---------------

rencor aki
e| |--------------------|--------------------|
B| |----3-----5----3----|----3-----5----3----|
G| |--0----0-----0----0-|--0----0-----0----0-|
D| |0-------------------|0-------------------|
A| |--------------------|--------------------|
E| |--------------------|--------------------|


Mírame cayendo en pedazos por tu
e| |--------------------|------------------|---------------
B| |----3-----5----3----|-----3----5---3---|----3---5---3--
G| |--0----0-----0----0-|---0---0----0---0-|--0---0---0---0
D| |5-------------------|-4----------------|2--------------
A| |--------------------|------------------|---------------
E| |--------------------|------------------|---------------

Adiós
e| |--------------------|
B| |----3-----5----3----|
G| |--0----0-----0----0-|
D| |0-------------------|
A| |--------------------|
E| |--------------------|


                dime pues en q falle cual ah sido
e| |--------------------|------------------|---------------
B| |----3-----5----3----|-----3----5---3---|----3---5---3--
G| |--0----0-----0----0-|---0---0----0---0-|--0---0---0---0
D| |5-------------------|-4----------------|2--------------
A| |--------------------|------------------|---------------
E| |--------------------|------------------|---------------

MI error

kiero seguir buscando
e| |--------------------|------------------|---------------
B| |----3-----5----3----|-----3----5---3---|----3---5---3--
G| |--0----0-----0----0-|---0---0----0---0-|--0---0---0---0
D| |5-------------------|-4----------------|2--------------
A| |--------------------|------------------|---------------
E| |--------------------|------------------|---------------

solución
e| |--------------------|--------------------|
B| |----3-----5----3----|----3-----5----3----|
G| |--0----0-----0----0-|--0----0-----0----0-|
D| |0-------------------|0-------------------|
A| |--------------------|--------------------|
E| |--------------------|--------------------|


(en esta  estrofa es lo mismo q la primera ok)
kiero hoy volverte a mirar
y no se si tu me miras
dudo q tu me vuelvas a mirar
por lo menos dime si es verdad
q desde ayer te olvidaste ya de mi
y q no es verdad y vuelve a mi
no me aferrare comprenderé y después
me marchare

G        Em
Escúchame
    C            Am
tan solo estoy agonizando
G            Em
mírame otra ves
   C           Am
y dime si me ves llorando
G           Em
se feliz también
    C             Am        G
no te preocupes yo aki estaré
          Em
esperándote
       C       Am
para cuando decidas tu
    G
volver

e| |---------------------|
B| |----3-----------3----|
G| |--0-----0----0----0--| x 8
D| |5----------5---------|
A| |---------------------|
E| |---------------------|

e| |----------|
B| |--3-------|
G| |--0-------|
D| |--5-------|
A| |----------|
E| |----------|


CUALKIER DUDA O ACLARACION ME ECHAN UN GRITILLO
A MI E-MAIL wero07_@ o al maizpeiz
 ok

            
            
Suggest correction
Creating personal tab
Creating personal tab
You can edit any tab online and save it as your Personal.

You can edit, replace or remove any tab part or add personal notes – all changes will be seen only by you.

Personal tabs can be accessed anytime from any device, even offline.
Learn more »
Give kudos to tab author, rate the tab!
1 2 3 4 5
comments
print report bad tab
guest
Wanna post a correction for this tab? Suggest correction