Oops, an error
Loading. Please wait.

Prefiero Vivir tab

version 2
version 2

Whole song

24 views 1 this week
no commentswrite comment
1 2 3 4 5
3 more votes to show rating
add to favorites
×
Save as Personal and add changes to this tab that will be seen only by you. Learn more ›
×
You can save this tab as Personal to edit and correct it or add notes. All changes will be seen only by you. Learn more »
launch autoscroll
font size
0
reset
how to read this tab
guitar tuner
edit
Autoscroll
slow
fast
+/-
esc
set tempo
stop
Esta rola esta algo komplikada pero si acen lo k aki
di c, les saldra perfecta...*10*

INTRO

1| |---------0-----------0---------0---------0-|
2| |----3-----------3----------3---------3-----|
3| |-------2-----------2---------2----------2--| X 8
4| |-0-----------0----------0----------0-------|
5| |-------------------------------------------|
6| |-------------------------------------------|

   Hoy me he dado cuenta que sigo extrañando

1| |---------------------0--------0-------0----|
2| |------3---3----3---------3-------3---------|
3| |------------------2--------2--------2------|
4| |----0--------------------------------------|
5| |--------4----2---------2--------2----------|
6| |-------------------------------------------|

    Tu piel tus manos y tu mirar

1| |----------------0-------0--------0---------|
2| |----3--3---3--------3--------3-------------|
3| |--------------2-------2-------2------------|
4| |-------------------------------------------|
5| |--2--0-------------------------------------|
6| |---------3--------3-------3----------------|

   se quedan mis palabras dentro de mi cuerpo

1| |--------------------0--------0------0------|
2| |------3---3----3--------3--------3---------|
3| |-----------------2--------2--------2-------|
4| |-------------------------------------------|
5| |-------------------------------0-----------|
6| |---3----2----0--------0--------------------|

    Pues  ya no  te  kiero lastimar

1| |---------0-----------0---------0---------0-|
2| |----3-----------3----------3---------3-----|
3| |-------2-----------2---------2----------2--|
4| |-0-----------0----------0----------0-------|
5| |-------------------------------------------|
6| |-------------------------------------------|

se q en este tiempo no fui el indicado

1| |---------------------0--------0-------0----|
2| |------3---3----3---------3-------3---------|
3| |------------------2--------2--------2------|
4| |----0--------------------------------------|
5| |--------4----2---------2--------2----------|
6| |-------------------------------------------|

     me esfuerzo de hasta ya no poder

1| |----------------0-------0--------0---------|
2| |----3--3---3--------3--------3-------------|
3| |--------------2-------2-------2------------|
4| |-------------------------------------------|
5| |--2--0-------------------------------------|
6| |---------3--------3-------3----------------|

    mi korazon se a roto porq te as marchado

1| |--------------------0--------0--------0----|
2| |------3---3----3--------3--------3---------|
3| |-----------------2--------2--------2------|
4| |-------------------------------------------|
5| |-------------------------------0-----------|
6| |----3----2---0----------0------------------|
     pero no te voy a detener

1| |---------0----------0--------0---------0---|
2| |----2----------2---------2--------2--------|
3| |-------2----------2--------2---------2-----|
4| |-2----------2---------2---------2----------|
5| |-------------------------------------------|
6| |-------------------------------------------|

(PRECORO)

D       Bm        G
pasa el tiempo y como un bello
              A
recuerdo que tengo aki
D      Bm   G
no me keda mas  q levantarme

y seguir mi camino poes el
A
tuyo kisiste seguir

(CORO)
      D               Bm
y mirame no estoy llorando por
                    G
tu piel solamente sako

las penas del tiempo q estuvimos
                  A
juntos y q me guarde
       D               Bm
Escuchame no estoy gritando por placer
              G
kiero q tu escuches komo estoy sufriendo
                                 A
y tambien despidiendome de tu kerer
D        Bm        G
Y me pregunto yo porq
                  A
es tan dificil mirarte partir
D         Bm          G
sino te suelto hoy mañana

kuando te tenga q soltar hasta
A
mi vida voy a entregar Prefiero vivir


D
Los dias q pasan ya los voy contando
   Bm
y me doy cuenta mas de mi error
      G
mi error no fue tenerte tampoco
               A
perderte mi error fue darte todo de mas
D       Bm    G
y por eso me guardo este kariño
   A
para alguien mas
D      Bm     G
ya mañana tu te daras

cuenta de lo q te perdiste
   A
yo se q soy mucho para ti

(CORO)
      D               Bm
y mirame no estoy llorando por
                    G
tu piel solamente sako

las penas del tiempo q estuvimos
                A
juntos y q me guarde

        D              Bm
Escuchame no estoy gritando por placer
              G
kiero q tu escuches komo estoy sufriendo
                               A
y tambien despidiendome de tu kerer


Ahí se las dejo esta perfecta *10* (Yo jamas te aria llorar)
Aceptenlaaa! :P

            
            
Suggest correction
Creating personal tab
Creating personal tab
You can edit any tab online and save it as your Personal.

You can edit, replace or remove any tab part or add personal notes – all changes will be seen only by you.

Personal tabs can be accessed anytime from any device, even offline.
Learn more »
Give kudos to tab author, rate the tab!
1 2 3 4 5
comments
print report bad tab
guest
Wanna post a correction for this tab? Suggest correction