Oops, an error
Loading. Please wait.

Otra Oportunidad tab

29 views 3 this week
no commentswrite comment
1 2 3 4 5
3 more votes to show rating
add to favorites
×
Save as Personal and add changes to this tab that will be seen only by you. Learn more ›
×
You can save this tab as Personal to edit and correct it or add notes. All changes will be seen only by you. Learn more »
launch autoscroll
font size
0
reset
how to read this tab
guitar tuner
edit
Autoscroll
slow
fast
+/-
esc
set tempo
stop
INTRO
      G      Am      F     C  G       G      Am      F          C  G
E|-------------------------------|------------------------------------|
B|-------------------------------|------------------------------------|
G|--9/12--12/14--14/10--10/9/12--|--9/12--12/14--14/17--17--17-16/17--|
D|-------------------------------|------------------------------------|
A|-------------------------------|------------------------------------|
E|-------------------------------|------------------------------------|

   C
Se abre la mañana
    A#
la luz del sol me ciega
      F
y al horizonte el mar
     C
su brisa me despierta.
  C
Siempre supe que algún día
 A#                         F
me darían otra oportunidad,
           G
una nueva vida.


ESTRIBILLO
                       Am
Quiero que me ciege el sol
                   F
quiero ser un corazón
                   C  G
que lata con más fuerza.
                      Am
Quiero ser en tí el amor
                   F
que levante la pasión
                 C  G
y rompa las fronteras.

      G      Am      F          C  G
E|------------------------------------|
B|------------------------------------|
G|--9/12--12/14--14/17--17--17-16/17--|
D|------------------------------------|
A|------------------------------------|
E|------------------------------------|


(Acordes de la primera estrofa)
Una radio en la playa
toca lento un rock&roll
y bailas tú,
descalza en la arena.
Yo te miro y tú me miras
algo arde en tu interior
lo puedo ver
pintado en tus pupilas.


ESTRIBILLO
Quiero que me ciege el sol
quiero ser un corazón
que lata con más fuerza.
Quiero ser en tí el amor
que levante la pasión
y rompa las fronteras.


SOLO
    G             Am                F              C         G
E|-------------------------------------------------12--------------|
B|-----------12-13--------12-13-15-13-----12-13-------15-13-15-----|
G|--12--12-14-----14----14--------------14------14-----------------|
D|-----------------------------------------------------------------|
A|-----------------------------------------------------------------|
E|-----------------------------------------------------------------|

   G             F                Am                C              G  Am
E|-------------12-----------12-13-12----12-13-15----15-12-15-12-15--------|
B|-12--12-13-15--13----13-15---------------------15----------------15-13--|
G|------------------------------------------------------------------------|
D|------------------------------------------------------------------------|
A|------------------------------------------------------------------------|
E|------------------------------------------------------------------------|


Am             F
   Porque cambiar
                 C
no trae a nadie más
                    G
que por un bien no venga.
Am           A#
   No olvidarás
                      F
que siempre hay algo más
                 G
detrás de la tormenta.


ESTRIBILLO
Quiero que me ciege el sol
quiero ser un corazón
que lata con más fuerza.
Quiero ser en tí el amor
que levante la pasión
y rompa las fronteras.

ESTRIBILLO
Quiero que me ciege el sol
quiero ser un corazón
que lata con más fuerza.
Quiero ser en tí el amor
que levante la pasión
y rompa las fronteras.

            
            
Suggest correction
Creating personal tab
Creating personal tab
You can edit any tab online and save it as your Personal.

You can edit, replace or remove any tab part or add personal notes – all changes will be seen only by you.

Personal tabs can be accessed anytime from any device, even offline.
Learn more »
Give kudos to tab author, rate the tab!
1 2 3 4 5
comments
print report bad tab
guest
Wanna post a correction for this tab? Suggest correction