Oops, an error
Loading. Please wait.

Days Of Hard Work And Pleasure tab

124 views 1 this week
2 commentsread comments
1 2 3 4 5
2 more votes to show rating
add to favorites
×
Save as Personal and add changes to this tab that will be seen only by you. Learn more ›
×
You can save this tab as Personal to edit and correct it or add notes. All changes will be seen only by you. Learn more »
launch autoscroll
font size
0
reset
how to read this tab
guitar tuner
edit
Autoscroll
slow
fast
+/-
esc
set tempo
stop
Artist - Pregnant Whale Pain
Album - Pregnant Whale Pain
Song - Days Of Hard Work And Pleasure
Tabbed By - Basher89

All Guitars - Drop C (C G C F A D)

BPM - 64

b - Bend
r - Release
. - Palm Mute
/ - Slide Up
\ - Slide Down
t - Tremolo Pick
h - Hammer On
p - Pull Off
~ - Vibrato
x - Mute
() - Natural Harmonic
*  - Artificial Harmonic
=  - Hold Bend


[Intro] (0:00)

Clean Guitar

d|-------------|-----------------|-------------|----------|
A|-------------|-----------------|-------------|----------|
F|-5-----7-----|-----------------|-5-----7-----|-9--------|
C|-5-----7-----|-6---7---8---9---|-5-----7-----|-9--------|
G|-3-----5-----|-6---7---8---9---|-3-----5-----|-7--------|
C|-------------|-6---7---8---9---|-------------|----------|

Guitar 1 (0:18)

d|---------------------------------------------|---------------------------------------------|
A|---------------------------------------------|------------5--------------------------------|
F|---------------------------------------------|------------5--------------------------------| 2x
C|---------------------------------------------|------------5--------------------------------|
G|---------------------------------------------|---------------------------------------------|
C|-7~--7--6~--6--5~--5--4--5--4--3~--3--2~--2--|-7~--7--6~-----5~--5--4--5--4--3~--3--2~--2--|

d|-----------------------|
A|-----------------------|
F|-----------------------|
C|-----------------------|
G|-2---2--2--------------|
C|-4---2--4---2p1-2------|

Guitar 2 (0:30) - use heavy wah

d|---------------------------------------------|---------------------------------------------|
A|---------------------------------------------|---------------------------------------------|
F|---------------------------------------------|---------------------------------------------|
C|---------------------------------------------|---------------------------------------------|
G|-3~--3--3~--3--3~--3--2--3--2--5~--5--7~--7--|-3~--3--3---3--3~--3--2--3--2--5~--5--7~--7--|
C|---------------------------------------------|---------------------------------------------|

d|---------------------------------|
A|---------------------------------|
F|-----------------6-6-9-9-6-9-----|
C|-----7-7-9-9-7-9-----------------|
G|-9-9-----------------------------|
C|---------------------------------|

We sin to stand tall, yet we feel so small
31, 32... I'm doing this all for you


[Verse] (0:45)

Bassline

F|---------------------------------------------|---------------------------------------------|
C|---------------------------------------------|---------------------------------------------| 2x
G|---------------------------------------------|------------3--------------------------------|
C|-7~--7--6~--6--5~--5--4--5--4--3~--3--2~--2--|-7~--7--6~-----5~--5--4--5--4--3~--3--2~--2--|

F|-------------------------------|--------------------------------|
C|-------------------------------|--------------------------------|
G|-------------------------------|--------------------------------|
C|-7~--7--1~--1--3~--3--3--3--3--|-1~--1--1~--1--2~--2--10--9--8--|

F|-------------------------------|-------------------------------|
C|-------------------------------|-------------------------------|
G|-------------------------------|-------------------------------|
C|-7~--7--2~--2--3~--3--3--3--3--|-1~--1--1~--1--2~--2--5--2--5--|

F|---------------------------------------------|---------------------------------------------|
C|---------------------------------------------|---------------------------------------------|
G|---------------------------------------------|------------3--------------------------------|
C|-7~--7--6~--6--5~--5--4--5--4--3~--3--2~--2--|-7~--7--6~-----5~--5--4--5--4--3~--3--2~--2--|

F|----------------------|
C|----------------------|
G|----------------------|
C|-4---2--4---2--2------|

Clean Guitar

d|-/17--17-16----/15--15-14----/13--13-12----|
A|-------------------------------------------|
F|-------------------------------------------| 4x
C|-------------------------------------------|
G|-------------------------------------------|
C|-------------------------------------------|
      *The guitarist doesn't always land on the first note,
        so slide up in the general area of the fret, then
        play the two following notes*


d|-/17--17-17---17-20---20-19---17-|-17---20-19---17-------------------------|
A|---------------------------------|-----------------15/17---17--17--17--17--|
F|---------------------------------|-----------------------------------------|
C|---------------------------------|-----------------------------------------|
G|---------------------------------|-----------------------------------------|
C|---------------------------------|-----------------------------------------|

d|------17-16---16-20---20-19---17-|-17---20-19---17-------------15------15--|
A|-17------------------------------|-----------------15/17---17------17------|
F|---------------------------------|-----------------------------------------|
C|---------------------------------|-----------------------------------------|
G|---------------------------------|-----------------------------------------|
C|---------------------------------|-----------------------------------------|

d|-/17--17-16----/15--15-14----/13--13-12----|      |-/14--12-14---12--12---|
A|-------------------------------------------|      |-----------------------|
F|-------------------------------------------| 2x   |-----------------------|
C|-------------------------------------------|      |-----------------------|
G|-------------------------------------------|      |-----------------------|
C|-------------------------------------------|      |-----------------------|

Low Horns (0:56)

F|-------------|---------------|--------------|------------|--------------|------------|
C|-------------|---------------|--------------|------------|--------------|------------|
G|-3-----5--7--|-3---3---5--7--|--------------|------------|--------------|------------|
C|-------------|---------------|-7---1---3----|-1----------|-7---2---3----|-1----------|

I drop my shirt on the floor
The mirror smiles back at me encouragingly
But demanding that I should be wanting more
The chest and the arms, oh can you feel me now
Now you ought to love me more
Now you ought to be loved
Breathing is heavy, palms so sweaty
My grip is rough, my lips too dry
Seeking for pride to swallow


[Chorus] (1:38)

Guitars 1 + 2

d|-------------------------------------|---------------------|------------------------|
A|-------------------------------------|---------------------|------------------------|
F|-5--5--5--5--5--5--7--7--7--7--7--7--|---------------------|-5--5--5--5--5--5--7\---|
C|-5--5--5--5--5--5--7--7--7--7--7--7--|-6----7----8----9----|-5--5--5--5--5--5--7\---|
G|-3--3--3--3--3--3--5--5--5--5--5--5--|-6----7----8----9----|-3--3--3--3--3--3--5\---|
C|-------------------------------------|-6----7----8----9----|------------------------|

Guitar 1 (1:50)

d|---------------------------------------------|---------------------------------------------|
A|---------------------------------------------|------------5--------------------------------|
F|---------------------------------------------|------------5--------------------------------| 2x
C|---------------------------------------------|------------5--------------------------------|
G|---------------------------------------------|---------------------------------------------|
C|-7~--7--6~--6--5~--5--4--5--4--3~--3--2~--2--|-7~--7--6~-----5~--5--4--5--4--3~--3--2~--2--|

d|-----------------------|
A|-----------------------|
F|-----------------------|
C|-----------------------|
G|-2---2--2--------------|
C|-4---2--4---2p1-2------|

Guitar 2 (2:01)

d|---------------------------------------------|---------------------------------------------|
A|---------------------------------------------|---------------------------------------------|
F|---------------------------------------------|---------------------------------------------|
C|---------------------------------------------|---------------------------------------------|
G|-3~--3--3~--3--3~--3--2--3--2--5~--5--7~--7--|-3~--3--3---3--3~--3--2--3--2--5~--5--7~--7--|
C|---------------------------------------------|---------------------------------------------|

d|---------------------------------|
A|---------------------------------|
F|-----------------6-6-9-9-6-9-----|
C|-----7-7-9-9-7-9-----------------|
G|-9-9-----------------------------|
C|---------------------------------|

We sin to stand tall, yet we feel so small
33, 34


[Verse 2] (2:16)

Bassline

F|---------------------------------------------|---------------------------------------------|
C|---------------------------------------------|---------------------------------------------| 2x
G|---------------------------------------------|------------3--------------------------------|
C|-7~--7--6~--6--5~--5--4--5--4--3~--3--2~--2--|-7~--7--6~-----5~--5--4--5--4--3~--3--2~--2--|

Clean Guitar

d|-/17--17-16----/15--15-14----/13--13-12----|
A|-------------------------------------------|
F|-------------------------------------------| 4x
C|-------------------------------------------|
G|-------------------------------------------|
C|-------------------------------------------|

Low Horns (2:28)

F|-------------|---------------|
C|-------------|---------------|
G|-3-----5--7--|-3---3---5--7--|
C|-------------|---------------|

I know there's no pleasure without a little pain
Still building my confidence on this terrain
No drop of my sweat is wasted in vain
The earth spins around, and I'll do it again


[Chorus 2] (2:39)

Guitars 1 + 2

d|-------------------------------------|---------------------|-------------------------------------|
A|-------------------------------------|---------------------|-------------------------------------|
F|-5--5--5--5--5--5--7--7--7--7--7--7--|---------------------|-5--5--5--5--5--5--7--7--7--7--7--7--|
C|-5--5--5--5--5--5--7--7--7--7--7--7--|-6----7----8----9----|-5--5--5--5--5--5--7--7--7--7--7--7--|
G|-3--3--3--3--3--3--5--5--5--5--5--5--|-6----7----8----9----|-3--3--3--3--3--3--5--5--5--5--5--5--|
C|-------------------------------------|-6----7----8----9----|-------------------------------------|

d|-------------------------------|
A|-------------------------------|
F|-------------------------------|
C|-------------------------------|
G|-------------------------------|
C|-7~--7--6~--6--5~--5--4--3--2--|

d|-------------------------------------|---------------------|------------------------|
A|-------------------------------------|---------------------|------------------------|
F|-5--5--5--5--5--5--7--7--7--7--7--7--|---------------------|-5--5--5--5--5--5--7\---|
C|-5--5--5--5--5--5--7--7--7--7--7--7--|-6----7----8----9----|-5--5--5--5--5--5--7\---|
G|-3--3--3--3--3--3--5--5--5--5--5--5--|-6----7----8----9----|-3--3--3--3--3--3--5\---|
C|-------------------------------------|-6----7----8----9----|------------------------|

We sin to stand tall, yet we feel so small
31, 32... I'm doing this all for you
We sin to stand tall, yet we feel so small
33, 34...


[Post-Chorus] (3:05)

Guitars 1 + 2

d|--------------------------------------|------------------------------------------------|
A|--------------------------------------|---------------5--------------------------------|
F|--------------------------------------|---------------5--------------------------------|
C|-7\-----------------------------------|---------------5--------------------------------|
G|-7\-----------------------------------|------------------------------------------------|
C|-7\-----5~--5--4--5--4--3~--3--2~--2--|-7~--7--6---------5~--5--4--5--4--3~--3--2~--2--|

Guitar 1

d|------------------------------------------------------|---------------------------------------------|
A|------------------------------------------------------|------------5--------------------------------|
F|------------------------------------------------------|------------5--------------------------------|
C|------------------------------------------------------|------------5--------------------------------|
G|------------------------------------------------------|---------------------------------------------|
C|-7~--7--6~--6------------------4--5--4--3~--3--2~--2--|-7~--7--6~-----5~--5--4--5--4--3~--3--2~--2--|

d|-----------------------|
A|-----------------------|
F|-----------------------|
C|-----------------------|
G|-2---2--2--------------|
C|-4---2--4---2--2-------|

Guitar 2

d|------------------------------------------------------|---------------------------------------------|
A|------------------------------------------------------|---------------------------------------------|
F|------------------------------------------------------|---------------------------------------------|
C|------------------------------------------------------|---------------------------------------------|
G|-3~--3--3~--3--3~--3--2--3--2--2--3--2--5~--5--7~--7--|-3~--3--3---3--3~--3--2--3--2--5---5--7---7--|
C|------------------------------------------------------|---------------------------------------------|

d|---------------------------------|
A|---------------------------------|
F|-----------------6-6-9-9-6-9-----|
C|-----7-7-9-9-7-9-----------------|
G|-9-9-----------------------------|
C|---------------------------------|


[Interlude] (3:34)

Guitars 1 + 2

d|-------|
A|-------|
F|-------|
C|-7-----|
G|-7-----|
C|-7-----|

Clean Guitar 1

d|-------------------|-------------------|----------------------|-------------------------|
A|-------0--------0--|-------0--------0--|-------0--------------|-------0--------------0--|
F|----5--------5-----|----5--------5-----|----5--------5--------|----5-----5-----5--------| 14x
C|-7--------7--------|-6--------6--------|-5--------5-----5--4--|-3-----------2-----6-----|
G|-------------------|-------------------|----------------------|-------------------------|
C|-------------------|-------------------|----------------------|-------------------------|

Clean Guitar 2 (4:08)

d|---------|--------|---------------------|-------5---4-----------|
A|-------5-|-----5--|-5----3--1-----5-----|----5---------5--4--5--|
F|---------|--------|------------------4--|-5---------------------| 2x
C|---------|--------|---------------------|-----------------------|
G|---------|--------|---------------------|-----------------------|
C|---------|--------|---------------------|-----------------------|

d|------------|------------|------------|-------5---4-----------|
A|------------|------------|------------|----5---------5--4--5--|
F|------------|------------|------------|-5---------------------| 4x
C|-7----------|-6----------|-5----------|-----------------------|
G|------------|------------|------------|-----------------------|
C|------------|------------|------------|-----------------------|

d|---------|--------|---------------------|-------5---4-----------|
A|-------5-|-----5--|-5----3--1-----5-----|----5---------5--4--5--|
F|---------|--------|------------------4--|-5---------------------| 4x
C|---------|--------|---------------------|-----------------------|
G|---------|--------|---------------------|-----------------------|
C|---------|--------|---------------------|-----------------------|

Throw your shirt on the floor
You smile back at me encouragingly
But demanding that I should be wanting more
The breasts and the legs, oh I want you to feel me now

Breathing is heavy, palms so sweaty
My grip is rough, your lips too dry
Seeking for pride to swallow
You know there's no pleasure without a little pain
Still building your confidence on this terrain
No drop of our sweat is wasted in vain
The earth spins around, and we'll do it again

When I play with you, it don't matter how many times I score
I always lose
When I play with you, it don't matter how many times I score
I always lose


[Buildup] (5:33)

Clean Guitars 1 + 2

d|-------------------|-------------------|-------------------|----------------|
A|-------------------|-------------------|-------0--------0--|-------0--------|
F|-------5--------5--|-------5-----------|-------------------|----------------| 2x
C|----7--------7-----|----7--------7-----|----7--------7-----|----7-----6-----|
G|-7--------7--------|-8--------8-----7--|-6--------6--------|-7--------------|
C|-------------------|-------------------|-------------------|----------------|

d|-------------------|-------------------|-------------------|-------------------|
A|-------------------|-------------------|-------------------|-------------------|
F|-------5--------5--|-------5--------5--|-------5--------5--|-------5--------5--|
C|----7--------7-----|----7--------7-----|----7--------7-----|----7--------7-----|
G|-7--------7--------|-8--------8--------|-9--------9--------|-8--------8--------|
C|-------------------|-------------------|-------------------|-------------------|

d|-------------------|-------------------|-------------------|-------------------|
A|-------------------|----------------0--|-------0--------0--|-------0--------0--|
F|-------5--------5--|-------5-----------|----5--------5-----|----5--------5-----|
C|----7--------7-----|----7--------7-----|-5--------5--------|-6--------6--------|
G|-7--------7--------|-8--------8--------|-------------------|-------------------|
C|-------------------|-------------------|-------------------|-------------------|

Bassline (6:03)

F|-------|-------|-------------|-------------|
C|-------|-------|-------------|-------------| 4x
G|-------|-------|-------------|-------------|
C|-7-----|-6-----|-5-----5--4--|-3-----2-----|
                           *Slowdown*

Clean Guitar 1 (6:03)

d|-------------------|-------------------|----------------------|-------------------------|
A|-------0--------0--|-------0--------0--|-------0--------------|-------0--------------0--|
F|----5--------5-----|----5--------5-----|----5--------5--------|----5-----5-----5--------| 4x
C|-7--------7--------|-6--------6--------|-5--------5-----5--4--|-3-----------2-----6-----|
G|-------------------|-------------------|----------------------|-------------------------|
C|-------------------|-------------------|----------------------|-------------------------|
                                                            *Slowdown*

Clean Guitar 2 (6:03)

d|---------|--------|---------------------|-------5---4-----------|
A|-------5-|-----5--|-5----3--1-----5-----|----5---------5--4--5--|
F|---------|--------|------------------4--|-5---------------------| 4x
C|---------|--------|---------------------|-----------------------|
G|---------|--------|---------------------|-----------------------|
C|---------|--------|---------------------|-----------------------|
                                       *Slowdown*

Now you ought to love me more
Oh I ought to be loved
When I play with you, it don't matter how many times I score
I always lose
When I play with you, it don't matter how many times I score
I always lose


[Outro] (6:41)

Guitars 1 + 2

d|-----|----------|----------|----------|-----------|-----------|----------|----------|----------|----------|
A|-----|----------|----------|----------|-----------|-----------|----------|----------|----------|----------|
F|-----|----------|----------|----------|-----------|-----------|----------|----------|----------|----------|
C|-----|----------|----------|----------|-----------|-----------|----------|----------|----------|----------|
G|-4\--|-2---2-2--|-2----4\--|-2---2-2--|-2--2--4\--|-2--2--4\--|-2---2-2--|-2----4\--|-2---2-2--|-2--2--2--|
C|-6\--|-2---5-2--|-4----6\--|-2---5-2--|-4--2--6\--|-2--5--6\--|-2---5-2--|-4----6\--|-2---5-2--|-4--5--2--|

d|-----|---------|----------|----------|-----|----------|-------------|-----|----------|-----|
A|-----|---------|----------|----------|-----|----------|-------------|-----|----------|-----|
F|-----|---------|----------|----------|-----|----------|-------------|-----|----------|-----|
C|-----|---------|----------|----------|-----|----------|-------------|-----|----------|-----|
G|-4\--|-2---4\--|-2---2-2--|-2----4\--|-4\--|-2---2-2--|-2--2--2--2--|-4\--|-2---2-2--|-4\--|
C|-6\--|-2---6\--|-2---5-2--|-4----6\--|-6\--|-2---5-2--|-4--5--2--5--|-6\--|-2---5-2--|-6\--|

d|----------|-----------|----------|
A|----------|-----------|----------|
F|----------|-----------|----------|
C|----------|-----------|----------|
G|-2---2-2--|-2--2--4\--|-2--------|
C|-2---5-2--|-4--5--6\--|-2--------|

Is that all you're gonna give me?


Definitely one of my favorite songs on the album. Hope this helps! As always, message me if you have
any revisions.

            
            
Suggest correction
Creating personal tab
Creating personal tab
You can edit any tab online and save it as your Personal.

You can edit, replace or remove any tab part or add personal notes – all changes will be seen only by you.

Personal tabs can be accessed anytime from any device, even offline.
Learn more »
Give kudos to tab author, rate the tab!
1 2 3 4 5
comments
print report bad tab
2 comments total.
0 reply
ColePennock 10 Feb 26, 2016 06:19 PM

Confessions is going to be so hard to tab haha but so worth it for that shredtastic solo, this batch of songs got the CREAM of the album done though. I can't wait for Relapse (My personal fav). Great work dude, keep it up.

0 reply
Basher89 412 Feb 26, 2016 07:36 PM

No joke, man. I can play... oh, about half of the solo so far xD I'll keep working at it, though - thanks for the support!
Also, I've got Relapse pretty tight. There's one lick in the chorus I stumble over, but I'll get that with a little bit of listening. :)

guest
You may want to rate the tab now too:
select rating
Wanna post a correction for this tab? Suggest correction