Oops, an error
Loading. Please wait.

How To Ruin Her Makeup tab

145 views 1 this week
no commentswrite comment
1 2 3 4 5
3 more votes to show rating
add to favorites
×
Save as Personal and add changes to this tab that will be seen only by you. Learn more ›
×
You can save this tab as Personal to edit and correct it or add notes. All changes will be seen only by you. Learn more »
launch autoscroll
font size
0
reset
how to read this tab
guitar tuner
edit
Autoscroll
slow
fast
+/-
esc
set tempo
stop
Artist  - Pregnant Whale Pain
Album - Blank
Song - How To Ruin Her Makeup
Tabbed By - Basher89

All Guitars - Drop C (C G C F A d)

[Step One - Intro]

Guitars 1 + 2 

d|-----------------------|------------------------|
A|-----------------------|------------------------|
F|-----------------------|------------------------| 2x
C|-----------------------|------------------------|
G|-4-----4-----4---------|-4-----4-----4----------|
C|----3----3-3---3-0--1--|----3----3-3----3--0--1-|

d|-----------------------|------------------------|
A|-----------------6--9--|-------------------6--9-|
F|-----------------4--7--|-------------------4--7-| 2x
C|-----------------------|------------------------|
G|-----------------------|------------------------|
C|-1--0--1-0-0-1-0-------|-1--0--1-0-0-1--0-------|


Step One:

Inject a lethal dose of survival into your veins
Tell her a made-up story of a pregnant whale's pain


[Step Two...] (0:22)

Guitar 1

d|-------------|
A|-------------|
F|-------------|
C|-3-----3---3-|
G|-4-----4---4-|
C|-3--0--3-0-3-|

d|-----------------------|------------------------|------------------------|-------------------------|
A|-----------------------|------------------------|------------------------|-------------------------|
F|-----------------------|------------------------|------------------------|-------------------------| 2x
C|-3-----3---3-3---3--3--|-3-3-3-----3---3--6-6-6-|-3-----3---3-3---3--3-2-|-1-3-----3---3--6--3-6-6-|
G|-4-----4---4-4---4--4--|-4-4-4-----4---4--7-7-7-|-4-----4---4-4---4--4-3-|-2-4-----4---4--7--4-7-7-|
C|-3--0--3-0-3-3-0-3--3--|-3-3-3--0--3-0-3--6-6-6-|-3--0--3-0-3-3-0-3--3-2-|-1-3--0--3-0-3--6--3-6-6-|

d|-------------|
A|-------------|
F|-------------|
C|-6-5-4-3-2-1-|
G|-7-6-5-4-3-2-|
C|-6-5-4-3-2-1-|

Guitar 2

d|-------------|
A|-------------|
F|-------------|
C|-------------|
G|-------------|
C|-------------|

d|-----------------------|------------------------|------------------------|-------------------------|
A|-----------------------|------------------------|------------------------|-------------------------|
F|-----------------------|------------------------|------------------------|-------------------------|
C|-3-----3---3-3---3--3--|-3-3-3-----3---3--6-6-6-|-3-----3---3-3---3--3-2-|-1-3-----3---3--6--3-6-6-|
G|-4-----4---4-4---4--4--|-4-4-4-----4---4--7-7-7-|-4-----4---4-4---4--4-3-|-2-4-----4---4--7--4-7-7-|
C|-3--0--3-0-3-3-0-3--3--|-3-3-3--0--3-0-3--6-6-6-|-3--0--3-0-3-3-0-3--3-2-|-1-3--0--3-0-3--6--3-6-6-|

d|-----------------------|------------------------|------------------------|-------------------------|
A|-----------------------|------------------------|------------------------|-------------------------|
F|-----------------------|------------------------|------------------------|-------------------------|
C|----0--3-0-3-7-6-3--3--|-3-3----0--3-0-3b-6-6-6-|----0--3-0-3-7-6-3------|------0--3-0-3--6--3-6-6-|
G|-4---------------------|-----4------------------|-4------------------4-3-|-2-4---------------------|
C|-----------------------|------------------------|------------------------|-------------------------|

d|-------------|
A|-------------|
F|-------------|
C|-6-5-4-3-2-1-|
G|-7-6-5-4-3-2-|
C|-6-5-4-3-2-1-|


Make sure you've quietly killed
Everything she fell in love with in the first place
Make sure you've silently chopped down
Every tree in the forest she used to be lost in


[Breakdown] (0:48)

Guitars 1 + 2

d|---------------------|------------------|--------------------------------|
A|---------------------|------------------|--------------------------------|
F|---------------------|------------------|--------------------------------| 2x
C|---------------------|------------------|--------------------------------|
G|----------7p6p5------|--------7p6p5-----|----------7p6p5p4-----4-----4---|
C|-0--5h6h7-------6~-0-|--5h6h7-------6~--|-0--5h6h7----------3----3-3---3-|

Guitar 1 (0:59)

d|---------------------|------------------|--------------------------------|
A|---------------------|------------------|--------------------------------|
F|---------------------|------------------|--------------------------------| 2x
C|---------------------|------------------|--------------------------------|
G|----------7p6p5------|--------7p6p5-----|----------7p6p5p4-----4-----4---|
C|-0--5h6h7-------6~-0-|--5h6h7-------6~--|-0--5h6h7----------3----3-3---3-|

d|-----------------------|
A|-----------------------|
F|-----------------------|
C|-----------------------|
G|-----------------------|
C|-0--1--1--0--1-0-0-1-0-|

Guitar 2 (0:59)

d|----------------|-----------------------|-----------------------------------|
A|-8--------------|-----------------------|--13----13---13---13---13-13-13-13-|
F|-8b-----------7-|--7\-9\-10\-12\-10h12b-|------12---12---12---12------------|
C|----------------|-----------------------|-----------------------------------|
G|----------------|-----------------------|-----------------------------------|
C|----------------|-----------------------|-----------------------------------|

d|------13---13--|-------13/20-20-20-|-20b----20\x/--20-20-20-20-20\x--|
A|-13b-----13----|-13r---------------|--------20\x/----------------\x--|
F|---------------|-------------------|---------------------------------|
C|---------------|-------------------|---------------------------------|
G|---------------|-------------------|---------------------------------|
C|---------------|-------------------|---------------------------------|


And don't forget about love
It's peaceful and it's so harmlessly soothing
But it can be quite rough and dirty
If it thinks you are good looking
And trust me baby, we are lookin' good


[Interlude] (1:16)

Guitar 1

d|----7-----7--|----7----7/10--|----7-----7----7\6-|
A|----6-----6--|----6----6/9---|----6-----6----6\5-|
F|----5-----5--|----5----5/8---|----5-----5----5\4-| 2x
C|-------------|---------------|-------------------|
G|-------------|---------------|-------------------|
C|-0-----0-----|-0----0--------|-0-----0-----0-----|
PM -     -       -    -          -     -     -

d|----7-----7--|----7----7/10--|----7----------|---------------|----------|
A|----6-----6--|----6----6/9---|----6----------|---------------|----------|
F|----5-----5--|----5----5/8---|----5----3-4-5-|-6b-----4b-----|-3--2--1--|
C|-------------|---------------|---------------|---------------|----------|
G|-------------|---------------|---------------|-----2------2--|----------|
C|-0-----0-----|-0----0--------|-0-----0-------|---------------|----------|
PM -     -       -    -          -     - - - -       -      -

d|----7-----7--|----7----7/10--|----7-----7------|-------------------|-------------------|
A|----6-----6--|----6----6/9---|----6-----6------|-------------------|-------------------|
F|----5-----5--|----5----5/8---|----5-----5------|-5\4--5\4--4\3-3\2-|-5\4--5\4--4\3-3\2-|
C|-------------|---------------|-----------------|-4\3--4\3--3\2-2\1-|-4\3--4\3--3\2-2\1-|
G|-------------|---------------|-----------------|-------------------|-------------------|
C|-0-----0-----|-0----0--------|-0-----0-----0---|-------------------|-------------------|
PM -     -       -    -          -     -     -

d||---------------------|      |-----------------|
A||---------------------|      |-----------------|
F||---------------------| 2x   |-----------------| First Ending
C||---------------------|      |-----------------|
G||---------------------|      |--------7p6p5----|
C||-3-2-1-3-2-1-3-2-2-1-|      |-0--5/6-------6~-|

d|------------------|------------------------|---------------------------|
A|------------------|------------------------|---------------------------|
F|------------------|------------------------|---------------------------|
C|------------------|------------------------|---------------------------|
G|--------7p6p5-----|------7--6--5-----5-----|-------4-------------------|
C|-0--5/6-------6-0-|--5/6----------6-----5--|-4--3-----5b--4p3p2-1-2-1--|


Guitar 2

d|-------------|---------------|----------------|
A|-------------|---------------|----------------|
F|---7-6-5-----|---------7-6-5-|-----7-6-5------| 2x
C|-------------|---------------|----------------|
G|-------------|---------------|----------------|
C|-0-----------|--0--0---------|---0------------|
PM - - - -        -  -   - - -     - - - -

d|-------------|---------------|---------------|---------------|----------|
A|-------------|---------------|---------------|---------------|----------|
F|---7-6-5-----|---------7-6-5-|---------------|---------------|----------|
C|-------------|---------------|-----7-6-5-6-7-|-8b-----6b-----|-5--4--3--|
G|-------------|---------------|---------------|---------------|----------|
C|-0-----------|--0--0---------|---0-----------|-----2------2--|----------|
PM -              -  -             - - - - - -       -      -

d|-------------|---------------|-----------------|-8\7--8\7--7\6-6\5-|-8\7--8\7--7\6-6\5-|
A|-------------|---------------|-----------------|-7\6--7\6--6\5-5\4-|-7\6--7\6--6\5-5\4-|
F|---7-6-5-----|---------7-6-5-|-----7-6-5-------|-------------------|-------------------|
C|-------------|---------------|-----------------|-------------------|-------------------|
G|-------------|---------------|-----------------|-------------------|-------------------|
C|-0-----------|--0--0---------|---0---------0---|-------------------|-------------------|
PM - - - -        -  -   - - -     - - - -   -

d|---------------------|      |-----------------|
A|---------------------|      |-----------------|
F|---------------------| 2x   |-----------------|
C|---------------------|      |-----------------|
G|---------------------|      |--------7p6p5----|
C|-3-2-1-3-2-1-3-2-2-1-|      |-0--5/6-------6~-|

Then do pick slides until this next part:

d|------------------------|---------------------------|
A|------------------------|---------------------------|
F|-x\---9--8--7-----7-----|-------6-------------------|
C|-x\------------6-----5--|-4--3-----5b--4p3p2-1-2-1--|
G|------------------------|---------------------------|
C|------------------------|---------------------------|


So good


[Step Three - Chorus] (2:05)

Guitar 1

d|-----------------------|-----------------------|--------------------|--------------------|
A|-----------------------|-----------------------|--------------------|--------------------|
F|-----------------------|-----------------------|-4---4-4-4----------|--------------------| 4x
C|-0---0-0-0-0--0--0--0--|-4---4-4-4-4--4--4--4--|-4---4-4-4-------5--|-5------------------|
G|-0---0-0-0-0--0--0--0--|-4---4-4-4-4--4--4--4--|-2---2-2-2----4--5--|-5------------------|
C|-0---0-0-0-0--0--0--0--|-4---4-4-4-4--4--4--4--|-----------3-----5--|-5--4-3-2--1--2--1--|

Guitar 2

d|-----------------------|-2---2-2-2-2--2--2--2--|-2---2-2-2----------|--------------------|
A|-3---3-3-3-3--3--3--3--|-2---2-2-2-2--2--2--2--|-3---3-3-3----------|--------------------|
F|-2---2-2-2-2--2--2--2--|-3---3-3-3-3--3--3--3--|-4---4-4-4----------|--------------------| 4x
C|-4---4-4-4-4--4--4--4--|-4---4-4-4-4--4--4--4--|-----------------5--|-5------------------|
G|-----------------------|-----------------------|--------------4--5--|-5------------------|
C|-----------------------|-----------------------|-----------3-----5--|-5--4-3-2--1--2--1--|

Trumpet 1 (2:29)

d|-----------------------|-----------2-----------|---------------------|-------------------|
A|-3---------3----2---0--|----2----2----5--3--2--|-0--3--0-3-5--5--5\3-|---3-4-5--4--5--4--|
F|-----------------------|-3-----3---------------|---------------------|-------------------| 2x
C|-------2-4-------------|-----------------------|---------------------|-------------------|
G|-----------------------|-----------------------|---------------------|-------------------|
C|-----------------------|-----------------------|---------------------|-------------------|

Trumpet 2 (2:42)

d|-----------------------|----2--0-2-6--2--7--10-|-9--7--7-7--5--2-----|---4-5-6--5--6--5--|
A|-7---------7----5---3--|-2---------------------|-----------------5-3-|-------------------|
F|-------6-7-------------|-----------------------|---------------------|-------------------|
C|-----------------------|-----------------------|---------------------|-------------------|
G|-----------------------|-----------------------|---------------------|-------------------|
C|-----------------------|-----------------------|---------------------|-------------------|


Step Three:

Now you can just sit and let the tears do their job
Now you can just sit and let the tears run


[Step Four - Breakdown II] (2:54)

Guitars 1 + 2

d|-------------|----------------|-------------|-------------|----------------|-------------|
A|-------------|----------------|-------------|-------------|----------------|-------------|
F|-------------|----------------|-------------|-------------|----------------|-------------|
C|-------------|----------------|-------------|-------------|----------------|-------------|
G|-----6b------|--6b------------|-6-----6-----|-----6b------|--6b------------|-6-----6--5--|
C|-0-------0-0-|------0-2-1-2-1-|---0-5----5--|-0-------0-0-|------0-2-1-2-1-|---0-5-------|

d|-------------|----------------|-------------|-------------|----------------|-----------------|
A|-------------|----------------|-------------|-------------|----------------|-----------------|
F|-------------|----------------|-------------|-------------|----------------|---------4-3-4-3-|
C|-------------|----------------|-------------|-------------|----------------|-2-1-2-1-2-1-2-1-|
G|-----6b------|--6b------------|-6-----6-----|-----6b------|--6b------------|-2-1-2-1-2-1-2-1-|
C|-0-------0-0-|------0-2-1-2-1-|---0-5----5--|-0-------0-0-|------0-2-1-2-1-|-2-1-2-1-2-1-2-1-|

d|-------------|----------------|----3-----------|
A|-------------|----------------|--6-------------|
F|-------------|----------------|------7---------| 2x
C|-------------|----------------|----------------|
G|-----6b------|--6b------------|----------------|
C|-0-------0-0-|------0-4br-0-1-|--------2-1-2-1-|

Guitar 1 (3:25)

d|-------------|----------------|----3-----------|         |-----------------------|
A|-------------|----------------|--6-------------|         |-----------------------|
F|-------------|----------------|------7---------| 2x      |-----------------------|
C|-------------|----------------|----------------|         |-----------------------|
G|-----6b------|--6b------------|----------------|         |-----------------------|
C|-0-------0-0-|------0-4br-0-1-|--------2-1-2-1-|         |-2-1-2-1-2-1-2-1-1b~----|

Guitar 2 (3:25)

d|-------------|----------------|----------------|         |-----------------------|
A|-------------|----------------|----------------|         |-----------------------|
F|-------------|----------------|----------------| 2x      |-----------------------|
C|-------------|----------------|----------------|         |-----------------------|
G|-0---6b--0-0-|--6b--0-4br-0-1-|--------2-1-2-1-|         |-2-1-2-1-2-1-2-1-1b~----|
C|-------------|----------------|----------------|         |-----------------------|

Guitar 3 (3:13)

d|-/17\--15\--14\--10b--|-11-------10/--|-/17\--15\--14\--10b--|-11--------5/--|
A|----------------------|---------------|----------------------|---------------|
F|----------------------|---------------|----------------------|---------------|
C|----------------------|---------------|----------------------|---------------|
G|----------------------|---------------|----------------------|---------------|
C|----------------------|---------------|----------------------|---------------|

d|-/17\--15\--14\--10b--|-11-------10/--|-/17\--15\--14\--17b--|--22b-22b-22b-x\--x\--|
A|----------------------|---------------|----------------------|--------------x\--x\--|
F|----------------------|---------------|----------------------|----------------------|
C|----------------------|---------------|----------------------|----------------------|
G|----------------------|---------------|----------------------|----------------------|
C|----------------------|---------------|----------------------|----------------------|


Step Four:

The power of words should pale (in comparison)
To the weight of events you pretend (never occurred)
So you can say the most horrible things (with a gaze)
Too blank to return


[Interlude 2] (3:41)

Guitar 1

d|----7-----7--|----7----7/10--|----7-----7----7\6-|
A|----6-----6--|----6----6/9---|----6-----6----6\5-|
F|----5-----5--|----5----5/8---|----5-----5----5\4-| 2x
C|-------------|---------------|-------------------|
G|-------------|---------------|-------------------|
C|-0-----0-----|-0----0--------|-0-----0-----0-----|
PM -     -       -    -          -     -     -

d|----7-----7--|----7----7/10--|----7----------|---------------|----------|
A|----6-----6--|----6----6/9---|----6----------|---------------|----------|
F|----5-----5--|----5----5/8---|----5----3-4-5-|-6b-----4b-----|-3--2--1--|
C|-------------|---------------|---------------|---------------|----------|
G|-------------|---------------|---------------|-----2------2--|----------|
C|-0-----0-----|-0----0--------|-0-----0-------|---------------|----------|
PM -     -       -    -          -     - - - -       -      -

d|----7-----7--|----7----7/10--|----7-----7------|
A|----6-----6--|----6----6/9---|----6-----6------|
F|----5-----5--|----5----5/8---|----5-----5------|
C|-------------|---------------|-----------------|
G|-------------|---------------|-----------------|
C|-0-----0-----|-0----0--------|-0-----0-----0---|
PM -     -       -    -          -     -     -

Guitar 2

d|-------------|---------------|-------------------|
A|-------------|---------------|-------------------|
F|----4-----4--|---------4/7---|----4-----4----4\3-| 2x
C|----3-----3--|---------3/6---|----3-----3----3\2-|
G|-------------|---------------|-------------------|
C|-0-----0-----|-0----0--------|-0-----0-----0-----|
PM -     -       -    -          -     -     -

d|-------------|---------------|---------------|---------------|----------|
A|-------------|---------------|---------------|---------------|----------|
F|----4-----4--|----4----4/7---|----4----------|---------------|----------|
C|----3-----3--|----3----3/6---|----3----5-6-7-|-8b-----6b-----|-5--4--3--|
G|-------------|---------------|---------------|---------------|----------|
C|-0-----0-----|-0----0--------|-0-----0-------|-----2------2--|----------|
PM -     -       -    -          -     - - - -       -      -

d|-------------|---------------|-----------------|
A|-------------|---------------|-----------------|
F|----4-----4--|----4----4/7---|----4-----4------|
C|----3-----3--|----3----3/6---|----3-----3------|
G|-------------|---------------|-----------------|
C|-0-----0-----|-0----0--------|-0-----0-----0---|
PM -     -       -    -          -     -     -


[Skip Step Five] (4:14)

Guitar 1

d|----7-----7--|----7----7/10--|----7-----7----7\6-|
A|----6-----6--|----6----6/9---|----6-----6----6\5-|
F|----5-----5--|----5----5/8---|----5-----5----5\4-| 3x
C|-0-----0-----|-0----0--------|-0-----0-----0-----|
G|-0-----0-----|-0----0--------|-0-----0-----0-----|
C|-0-----0-----|-0----0--------|-0-----0-----0-----|

d|----7-----7--|----7----7/10--|----7-----7--7-|-------------------|-------------------|
A|----6-----6--|----6----6/9---|----6-----6--6-|-------------------|-------------------|
F|----5-----5--|----5----5/8---|----5-----5--5-|-5\4--5\4--4\3-3\2-|-5\4--5\4--4\3-3\2-|
C|-0-----0-----|-0----0--------|-0-----0-------|-4\3--4\3--3\2-2\1-|-4\3--4\3--3\2-2\1-|
G|-0-----0-----|-0----0--------|-0-----0-------|-------------------|-------------------|
C|-0-----0-----|-0----0--------|-0-----0-------|-------------------|-------------------|

d||---------------------|      |-----------------|
A||---------------------|      |-----------------|
F||---------------------| 2x   |-----------------| First Ending
C||---------------------|      |-----------------|
G||---------------------|      |--------7p6p5----|
C||-3-2-1-3-2-1-3-2-2-1-|      |-0--5/6-------6~-|

d|------------------|------------------------|---------------------------|
A|------------------|------------------------|---------------------------|
F|------------------|------------------------|---------------------------|
C|------------------|------------------------|---------------------------|
G|--------7p6p5-----|------7--6--5-----5-----|-------4-------------------|
C|-0--5/6-------6-0-|--5/6----------6-----5--|-4--3-----5b--4p3p2-1-2-1--|

Guitar 2

d|----7-----7--|----7----7/10--|----7-----7----7\6-|
A|----6-----6--|----6----6/9---|----6-----6----6\5-|
F|----5-----5--|----5----5/8---|----5-----5----5\4-| 2x
C|-0-----0-----|-0----0--------|-0-----0-----0-----|
G|-0-----0-----|-0----0--------|-0-----0-----0-----|
C|-0-----0-----|-0----0--------|-0-----0-----0-----|

d|-7-7-7-7---7--|--7--7--7-7-7-|---7-7-7-7---7/-|    |-8\7--8\7--7\6-6\5-|-8\7--8\7--7\6-6\5-|
A|-6-6-6-6---6--|--6--6--6-6-6-|---6-6-6-6---6/-|    |-7\6--7\6--6\5-5\4-|-7\6--7\6--6\5-5\4-|
F|-5-5-5-5---5--|--5--5--5-5-5-|---5-5-5-5---5/-| 2x |-------------------|-------------------|
C|--------------|--------------|----------------|    |-------------------|-------------------|
G|--------------|--------------|----------------|    |-------------------|-------------------|
C|--------------|--------------|----------------|    |-------------------|-------------------|

d|---------------------|      |-----------------|
A|---------------------|      |-----------------|
F|---------------------| 2x   |-----------------|
C|---------------------|      |-----------------|
G|---------------------|      |--------7p6p5----|
C|-3-2-1-3-2-1-3-2-2-1-|      |-0--5/6-------6~-|

d|------------------------|---------------------------|
A|------------------------|---------------------------|
F|-x\---9--8--7-----7-----|-------6-------------------|
C|-x\------------6-----5--|-4--3-----5b--4p3p2-1-2-1--|
G|------------------------|---------------------------|
C|------------------------|---------------------------|


So good


[Outro] (4:58)

Guitars 1 + 2

d|-2------|
A|-3------|
F|-2------| Fade out
C|-0------|
G|-0------|
C|-0------|

Clean Guitar 1

d|----2-----2-----2-----2--|-------------------------|-------------------|--------------------|
A|----3-----3-----3-----3--|----2-----2-----2-----2--|----3-----3--------|--------------------|
F|----2-----2-----2-----2--|----3-----3-----3-----3--|----4-----4--------|----4---------------| 12x
C|-------------------------|----4-----4-----4-----4--|----4-----4--------|----5---------------|
G|-------------------------|-------------------------|-2-----2--------4--|----5---------------|
C|-0-----0-----0-----0-----|-4-----4-----4-----4-----|-------------3-----|-5-----5--4-3-2--1--|
PM -     -     -     -       -     -     -     -       -     -             -     -

Trumpet (5:46)

d|---10-7-5---------10-7-5-|-----10-7-5---------9-7-5-|-----10-7-5--------|------10-7-5-----------|
A|-------------------------|--------------------------|-------------6--7--|-8--8--------7-6-5--4--| 6x
F|-7----------7--7---------|---6----------6--6--------|---7---------------|-----------------------|
C|-------------------------|--------------------------|-------------------|-----------------------|
G|-------------------------|--------------------------|-------------------|-----------------------|
C|-------------------------|--------------------------|-------------------|-----------------------|


Bluesy Guitar (6:32)

d|--------------|
A|--------------|
F|-7--7--9-7--9-|
C|--------------|
G|--------------|
C|--------------|

d|-----------------------------|---------------------------|------------------|----------------------|
A|-----------------------------|---------------------------|------------------|-----------10---10----|
F|-9b11--7-----------7--9-7--9-|-9b11--6-------------6--7--|---7-----7-9--9-7-|-9-7---7------11---11-|
C|----------7--5-4-------------|----------9--5-4---9-------|-9-----9----------|-----9----------------|
G|-----------------------------|---------------------------|------------------|----------------------|
C|-----------------------------|---------------------------|------------------|----------------------|

d|-----------------------------------|----------------------------|-----------------------|---------|
A|-10---10----10----10----10---10----|-11---11----11----11--------|--------------------10-|---------|
F|----11--11------11--11-----11---11-|----11--11------11--11------|-7----7----7--9b11-----|-9r--7~--|
C|-----------------------------------|----------------------------|----9----9-------------|---------|
G|-----------------------------------|----------------------------|-----------------------|---------|
C|-----------------------------------|----------------------------|-----------------------|---------|

d|------------------------|-----------------------------------|---------------------|------------|
A|------------------------|--------10--10-12~---12h15p12~--10-|---------------------|------------|
F|-9b11--9br-7----------7-|-9--11-----------------------------|-11p9p7-7----9--9br~-|---7--------|
C|-------------9---7-9----|-----------------------------------|---------------------|------------|
G|------------------------|-----------------------------------|---------------------|------------|
C|------------------------|-----------------------------------|---------------------|------------|

d|-----------------------|----------------------|------------------|---------------|--------|
A|-----------------------|----------------------|------------------|---------------|--------|
F|-9b11--9br-7-----------|----------------------|------------------|---------------|--------|
C|-------------9----7-9--|-8--4--4--5-4----4--2-|----------2--2----|-2-------------|--------|
G|-----------------------|----------------------|-5--2-5---------5-|----5-2--5-----|--------|
C|-----------------------|----------------------|------------------|---------------|-0------|



************************************

| b   Bend
| p   Pull-off
| h   Hammer-on
| ~   Vibrato
| \   Slide down
| /   Slide up
| r   Release
| PM  Palm mute
| br  Bend release

************************************

            
            
Suggest correction
Creating personal tab
Creating personal tab
You can edit any tab online and save it as your Personal.

You can edit, replace or remove any tab part or add personal notes – all changes will be seen only by you.

Personal tabs can be accessed anytime from any device, even offline.
Learn more »
Give kudos to tab author, rate the tab!
1 2 3 4 5
comments
print report bad tab
guest
You may want to rate the tab now too:
select rating
Wanna post a correction for this tab? Suggest correction